  0
SECTION
  2
ENTITIES
  0
LINE
  8
APS_GEOMETRY
 10
0.0625
 11
17.9375
 20
24.375
 21
24.375
  0
LINE
  8
APS_GEOMETRY
 10
17.9375
 11
17.9375
 20
24.375
 21
30.375
  0
LINE
  8
APS_GEOMETRY
 10
17.9375
 11
0.0625
 20
30.375
 21
30.375
  0
LINE
  8
APS_GEOMETRY
 10
0.0625
 11
0.0625
 20
30.375
 21
24.375
  0
LINE
  8
APS_GEOMETRY
 10
0.0625
 11
0.0625
 20
0.0
 21
24.25
  0
LINE
  8
APS_GEOMETRY
 10
0.0625
 11
17.9375
 20
24.25
 21
24.25
  0
LINE
  8
APS_GEOMETRY
 10
17.9375
 11
17.9375
 20
24.25
 21
0.0
  0
LINE
  8
APS_GEOMETRY
 10
17.9375
 11
0.0625
 20
0.0
 21
0.0
  0
LINE
  8
APS_GEOMETRY
 10
3.0625
 11
3.0625
 20
0.0
 21
24.25
  0
LINE
  8
APS_GEOMETRY
 10
14.9375
 11
14.9375
 20
24.25
 21
0.0
  0
LINE
  8
APS_GEOMETRY
 10
3.0625
 11
3.0625
 20
30.375
 21
24.375
  0
LINE
  8
APS_GEOMETRY
 10
14.9375
 11
14.9375
 20
24.375
 21
30.375
  0
LINE
  8
APS_GEOMETRY
 10
3.0625
 11
14.9375
 20
26.375
 21
26.375
  0
LINE
  8
APS_GEOMETRY
 10
14.9375
 11
3.0625
 20
28.375
 21
28.375
  0
LINE
  8
APS_GEOMETRY
 10
3.0625
 11
14.9375
 20
21.25
 21
21.25
  0
LINE
  8
APS_GEOMETRY
 10
14.9375
 11
3.0625
 20
3.0
 21
3.0
  0
LINE
  8
APS_GEOMETRY
 10
20.25
 11
21.0
 20
24.375
 21
24.375
  0
LINE
  8
APS_GEOMETRY
 10
21.0
 11
21.0
 20
24.375
 21
30.375
  0
LINE
  8
APS_GEOMETRY
 10
21.0
 11
20.25
 20
30.375
 21
30.375
  0
LINE
  8
APS_GEOMETRY
 10
20.25
 11
20.25
 20
30.375
 21
27.5
  0
LINE
  8
APS_GEOMETRY
 10
20.25
 11
20.25
 20
27.25
 21
24.375
  0
LINE
  8
APS_GEOMETRY
 10
20.25
 11
20.25
 20
0.0
 21
24.25
  0
LINE
  8
APS_GEOMETRY
 10
20.25
 11
21.0
 20
24.25
 21
24.25
  0
LINE
  8
APS_GEOMETRY
 10
21.0
 11
21.0
 20
24.25
 21
0.0
  0
LINE
  8
APS_GEOMETRY
 10
21.0
 11
20.25
 20
0.0
 21
0.0
  0
LINE
  8
APS_GEOMETRY
 10
21.0
 11
20.75
 20
28.375
 21
28.375
  0
LINE
  8
APS_GEOMETRY
 10
20.5
 11
20.25
 20
28.375
 21
28.375
  0
LINE
  8
APS_GEOMETRY
 10
20.25
 11
20.5
 20
26.375
 21
26.375
  0
LINE
  8
APS_GEOMETRY
 10
20.75
 11
21.0
 20
26.375
 21
26.375
  0
LINE
  8
APS_GEOMETRY
 10
20.25
 11
20.5
 20
21.25
 21
21.25
  0
LINE
  8
APS_GEOMETRY
 10
20.75
 11
21.0
 20
21.25
 21
21.25
  0
LINE
  8
APS_GEOMETRY
 10
21.0
 11
20.75
 20
3.0
 21
3.0
  0
LINE
  8
APS_GEOMETRY
 10
20.5
 11
20.25
 20
3.0
 21
3.0
  0
LINE
  8
APS_GEOMETRY
 10
20.75
 11
20.5
 20
28.75
 21
28.75
  0
LINE
  8
APS_GEOMETRY
 10
20.5
 11
20.75
 20
26.0
 21
26.0
  0
LINE
  8
APS_GEOMETRY
 10
20.5
 11
20.75
 20
21.625
 21
21.625
  0
LINE
  8
APS_GEOMETRY
 10
20.75
 11
20.5
 20
2.625
 21
2.625
  0
LINE
  8
APS_GEOMETRY
 10
20.5
 11
20.5
 20
2.625
 21
21.625
  0
LINE
  8
APS_GEOMETRY
 10
20.75
 11
20.75
 20
21.625
 21
2.625
  0
LINE
  8
APS_GEOMETRY
 10
20.5
 11
20.5
 20
28.75
 21
26.0
  0
LINE
  8
APS_GEOMETRY
 10
20.75
 11
20.75
 20
26.0
 21
28.75
  0
CIRCLE
  8
APS_GEOMETRY
 10
9.0
 20
27.375
 40
0.5
  0
LINE
  8
APS_GEOMETRY
 10
20.5
 11
20.189335
 20
27.5
 21
27.5
  0
ARC
  8
APS_GEOMETRY
 10
20.189335
 20
27.75
 40
0.25
 50
200.075562
 51
270.0
  0
ARC
  8
APS_GEOMETRY
 10
19.372951
 20
27.451641
 40
0.619196
 50
20.075562
 51
26.565051
  0
ARC
  8
APS_GEOMETRY
 10
19.605633
 20
27.567981
 40
0.35905
 50
26.565051
 51
50.360728
  0
ARC
  8
APS_GEOMETRY
 10
19.75
 20
27.742248
 40
0.132752
 50
50.360728
 51
129.639272
  0
ARC
  8
APS_GEOMETRY
 10
19.894367
 20
27.567981
 40
0.35905
 50
129.639272
 51
153.434949
  0
ARC
  8
APS_GEOMETRY
 10
20.127049
 20
27.451641
 40
0.619196
 50
153.434949
 51
168.29908
  0
ARC
  8
APS_GEOMETRY
 10
20.497103
 20
27.375
 40
0.997103
 50
168.29908
 51
191.70092
  0
ARC
  8
APS_GEOMETRY
 10
20.127049
 20
27.298359
 40
0.619196
 50
191.70092
 51
206.565051
  0
ARC
  8
APS_GEOMETRY
 10
19.894367
 20
27.182019
 40
0.35905
 50
206.565051
 51
230.360728
  0
ARC
  8
APS_GEOMETRY
 10
19.75
 20
27.007752
 40
0.132752
 50
230.360728
 51
309.639272
  0
ARC
  8
APS_GEOMETRY
 10
19.605633
 20
27.182019
 40
0.35905
 50
309.639272
 51
333.434949
  0
ARC
  8
APS_GEOMETRY
 10
19.372951
 20
27.298359
 40
0.619196
 50
333.434949
 51
339.924438
  0
ARC
  8
APS_GEOMETRY
 10
20.189335
 20
27.0
 40
0.25
 50
90.0
 51
159.924438
  0
LINE
  8
APS_GEOMETRY
 10
20.189335
 11
20.5
 20
27.25
 21
27.25
  0
LINE
  8
APS_GEOMETRY
 10
20.25
 11
19.939335
 20
22.375
 21
22.375
  0
ARC
  8
APS_GEOMETRY
 10
19.939335
 20
22.625
 40
0.25
 50
200.075562
 51
270.0
  0
ARC
  8
APS_GEOMETRY
 10
19.122951
 20
22.326641
 40
0.619196
 50
20.075562
 51
26.565051
  0
ARC
  8
APS_GEOMETRY
 10
19.355633
 20
22.442981
 40
0.35905
 50
26.565051
 51
50.360728
  0
ARC
  8
APS_GEOMETRY
 10
19.5
 20
22.617248
 40
0.132752
 50
50.360728
 51
129.639272
  0
ARC
  8
APS_GEOMETRY
 10
19.644367
 20
22.442981
 40
0.35905
 50
129.639272
 51
153.434949
  0
ARC
  8
APS_GEOMETRY
 10
19.877049
 20
22.326641
 40
0.619196
 50
153.434949
 51
168.29908
  0
ARC
  8
APS_GEOMETRY
 10
20.247103
 20
22.25
 40
0.997103
 50
168.29908
 51
191.70092
  0
ARC
  8
APS_GEOMETRY
 10
19.877049
 20
22.173359
 40
0.619196
 50
191.70092
 51
206.565051
  0
ARC
  8
APS_GEOMETRY
 10
19.644367
 20
22.057019
 40
0.35905
 50
206.565051
 51
230.360728
  0
ARC
  8
APS_GEOMETRY
 10
19.5
 20
21.882752
 40
0.132752
 50
230.360728
 51
309.639272
  0
ARC
  8
APS_GEOMETRY
 10
19.355633
 20
22.057019
 40
0.35905
 50
309.639272
 51
333.434949
  0
ARC
  8
APS_GEOMETRY
 10
19.122951
 20
22.173359
 40
0.619196
 50
333.434949
 51
339.924438
  0
ARC
  8
APS_GEOMETRY
 10
19.939335
 20
21.875
 40
0.25
 50
90.0
 51
159.924438
  0
LINE
  8
APS_GEOMETRY
 10
19.939335
 11
20.25
 20
22.125
 21
22.125
  0
CIRCLE
  8
APS_GEOMETRY
 10
15.9375
 20
22.25
 40
0.5
  0
LINE
  8
CONSTRUCTION
 10
4.957845
 11
4.80195
 20
-3.115445
 21
-3.500728
  0
LINE
  8
CONSTRUCTION
 10
4.80195
 11
5.113739
 20
-3.500728
 21
-3.500728
  0
LINE
  8
CONSTRUCTION
 10
5.113739
 11
4.957845
 20
-3.500728
 21
-3.115445
  0
LINE
  8
CONSTRUCTION
 10
4.957845
 11
6.17864
 20
-3.115445
 21
-3.115441
  0
LINE
  8
CONSTRUCTION
 10
6.17864
 11
6.022745
 20
-3.115441
 21
-3.500724
  0
LINE
  8
CONSTRUCTION
 10
6.022745
 11
6.334535
 20
-3.500724
 21
-3.500724
  0
LINE
  8
CONSTRUCTION
 10
6.334535
 11
6.17864
 20
-3.500724
 21
-3.115441
  0
LINE
  8
CONSTRUCTION
 10
6.17864
 11
7.399433
 20
-3.115441
 21
-3.115441
  0
LINE
  8
CONSTRUCTION
 10
7.399433
 11
7.243538
 20
-3.115441
 21
-3.500724
  0
LINE
  8
CONSTRUCTION
 10
7.243538
 11
7.555327
 20
-3.500724
 21
-3.500724
  0
LINE
  8
CONSTRUCTION
 10
7.555327
 11
7.399433
 20
-3.500724
 21
-3.115441
  0
LINE
  8
CONSTRUCTION
 10
7.399433
 11
8.620225
 20
-3.115441
 21
-3.115441
  0
LINE
  8
CONSTRUCTION
 10
8.620225
 11
8.46433
 20
-3.115441
 21
-3.500724
  0
LINE
  8
CONSTRUCTION
 10
8.46433
 11
8.77612
 20
-3.500724
 21
-3.500724
  0
LINE
  8
CONSTRUCTION
 10
8.77612
 11
8.620225
 20
-3.500724
 21
-3.115441
  0
LINE
  8
CONSTRUCTION
 10
8.620225
 11
9.840843
 20
-3.115441
 21
-3.115445
  0
LINE
  8
CONSTRUCTION
 10
9.840843
 11
9.684948
 20
-3.115445
 21
-3.500728
  0
LINE
  8
CONSTRUCTION
 10
9.684948
 11
9.996738
 20
-3.500728
 21
-3.500728
  0
LINE
  8
CONSTRUCTION
 10
9.996738
 11
9.840843
 20
-3.500728
 21
-3.115445
  0
LINE
  8
CONSTRUCTION
 10
4.5
 11
16.5
 20
-4.685253
 21
-4.685253
  0
TEXT
  8
TEXT
 10
4.80195
 20
-4.217351
 30
0.0
 40
0.672
 50
0.0
  1
DOVETAIL DESIGNS
  0
TEXT
  8
TEXT
 10
11.328109
 20
-4.655253
 30
0.0
 40
0.297
 50
0.0
  1
& MILLWORK INC.
  0
TEXT
  8
TEXT
 10
7.777374
 20
-4.921383
 30
0.0
 40
0.21
 50
0.0
  1
Established 1979
  0
TEXT
  8
TEXT
 10
4.8
 20
-5.4
 30
0.0
 40
0.3
 50
0.0
  1
Phone: (406) 248-5010    Website: www.dovetailmt.com
  0
ENDSEC
  0
EOF
