  0
SECTION
  2
ENTITIES
  0
ARC
  8
MOULD-NEW
 10
0.282986
 20
0.609375
 40
0.217014
 50
295.381345
 51
64.618655
  0
ARC
  8
MOULD-NEW
 10
0.379355
 20
0.8125
 40
0.007812
 50
115.376464
 51
244.62426
  0
ARC
  8
MOULD-NEW
 10
0.282987
 20
1.015625
 40
0.217014
 50
295.381158
 51
64.618685
  0
ARC
  8
MOULD-NEW
 10
0.379355
 20
1.21875
 40
0.007812
 50
115.380523
 51
244.623846
  0
ARC
  8
MOULD-NEW
 10
0.282986
 20
1.421875
 40
0.217014
 50
295.381311
 51
58.109356
  0
ARC
  8
MOULD-NEW
 10
0.331597
 20
1.5
 40
0.125
 50
58.109547
 51
90.000294
  0
LINE
  8
MOULD-NEW
 10
0.331597
 11
0.0
 20
1.625
 21
1.625
  0
LINE
  8
MOULD-NEW
 10
0.0
 11
0.0
 20
1.625
 21
0.0
  0
LINE
  8
MOULD-NEW
 10
0.0
 11
0.331597
 20
0.0
 21
0.0
  0
ARC
  8
MOULD-NEW
 10
0.331597
 20
0.125
 40
0.125
 50
270.0
 51
301.890792
  0
ARC
  8
MOULD-NEW
 10
0.282986
 20
0.203125
 40
0.217014
 50
301.890796
 51
64.618549
  0
ARC
  8
MOULD-NEW
 10
0.379355
 20
0.40625
 40
0.007812
 50
115.375328
 51
244.626144
  0
LINE
  8
CONSTRUCTION
 10
0.152615
 11
0.10065
 20
-1.038482
 21
-1.166909
  0
LINE
  8
CONSTRUCTION
 10
0.10065
 11
0.20458
 20
-1.166909
 21
-1.166909
  0
LINE
  8
CONSTRUCTION
 10
0.20458
 11
0.152615
 20
-1.166909
 21
-1.038482
  0
LINE
  8
CONSTRUCTION
 10
0.152615
 11
0.559547
 20
-1.038482
 21
-1.03848
  0
LINE
  8
CONSTRUCTION
 10
0.559547
 11
0.507582
 20
-1.03848
 21
-1.166908
  0
LINE
  8
CONSTRUCTION
 10
0.507582
 11
0.611512
 20
-1.166908
 21
-1.166908
  0
LINE
  8
CONSTRUCTION
 10
0.611512
 11
0.559547
 20
-1.166908
 21
-1.03848
  0
LINE
  8
CONSTRUCTION
 10
0.559547
 11
0.966478
 20
-1.03848
 21
-1.03848
  0
LINE
  8
CONSTRUCTION
 10
0.966478
 11
0.914513
 20
-1.03848
 21
-1.166908
  0
LINE
  8
CONSTRUCTION
 10
0.914513
 11
1.018442
 20
-1.166908
 21
-1.166908
  0
LINE
  8
CONSTRUCTION
 10
1.018442
 11
0.966478
 20
-1.166908
 21
-1.03848
  0
LINE
  8
CONSTRUCTION
 10
0.966478
 11
1.373408
 20
-1.03848
 21
-1.03848
  0
LINE
  8
CONSTRUCTION
 10
1.373408
 11
1.321443
 20
-1.03848
 21
-1.166908
  0
LINE
  8
CONSTRUCTION
 10
1.321443
 11
1.425373
 20
-1.166908
 21
-1.166908
  0
LINE
  8
CONSTRUCTION
 10
1.425373
 11
1.373408
 20
-1.166908
 21
-1.03848
  0
LINE
  8
CONSTRUCTION
 10
1.373408
 11
1.780281
 20
-1.03848
 21
-1.038482
  0
LINE
  8
CONSTRUCTION
 10
1.780281
 11
1.728316
 20
-1.038482
 21
-1.166909
  0
LINE
  8
CONSTRUCTION
 10
1.728316
 11
1.832246
 20
-1.166909
 21
-1.166909
  0
LINE
  8
CONSTRUCTION
 10
1.832246
 11
1.780281
 20
-1.166909
 21
-1.038482
  0
LINE
  8
CONSTRUCTION
 10
0.0
 11
4.0
 20
-1.561751
 21
-1.561751
  0
TEXT
  8
TEXT
 10
0.10065
 20
-1.405784
 30
0.0
 40
0.224
 50
0.0
  1
DOVETAIL DESIGNS
  0
TEXT
  8
TEXT
 10
2.276036
 20
-1.551751
 30
0.0
 40
0.099
 50
0.0
  1
& MILLWORK INC.
  0
TEXT
  8
TEXT
 10
1.092458
 20
-1.640461
 30
0.0
 40
0.07
 50
0.0
  1
Established 1979
  0
TEXT
  8
TEXT
 10
0.1
 20
-1.8
 30
0.0
 40
0.1
 50
0.0
  1
Phone: (406) 248-5010    Website: www.dovetailmt.com
  0
TEXT
  8
TEXT
 10
0.0
 20
-0.5
 30
0.0
 40
0.1
 50
0.0
  1
1/2"x1-5/8"
  0
TEXT
  8
TEXT
 10
0.0
 20
-0.25
 30
0.0
 40
0.15625
 50
0.0
  1
SE92
  0
ENDSEC
  0
EOF
