  0
SECTION
  2
ENTITIES
  0
ARC
  8
MOULD-NEW
 10
0.65625
 20
0.975601
 40
0.03125
 50
104.036243
 51
180.0
  0
LINE
  8
MOULD-NEW
 10
0.625
 11
0.625
 20
0.975601
 21
0.555649
  0
ARC
  8
MOULD-NEW
 10
0.65625
 20
0.555649
 40
0.03125
 50
180.0
 51
255.963757
  0
LINE
  8
MOULD-NEW
 10
0.648671
 11
0.726329
 20
0.525332
 21
0.505918
  0
ARC
  8
MOULD-NEW
 10
0.71875
 20
0.475601
 40
0.03125
 50
0.000023
 51
75.964207
  0
LINE
  8
MOULD-NEW
 10
0.75
 11
0.75
 20
0.475601
 21
0.0
  0
LINE
  8
MOULD-NEW
 10
0.75
 11
0.0
 20
0.0
 21
0.0
  0
LINE
  8
MOULD-NEW
 10
0.0
 11
0.0
 20
0.0
 21
1.625
  0
LINE
  8
MOULD-NEW
 10
0.0
 11
0.46875
 20
1.625
 21
1.625
  0
LINE
  8
MOULD-NEW
 10
0.46875
 11
0.46875
 20
1.625
 21
1.516724
  0
ARC
  8
MOULD-NEW
 10
0.5
 20
1.516724
 40
0.03125
 50
180.0
 51
236.309932
  0
LINE
  8
MOULD-NEW
 10
0.482666
 11
0.736084
 20
1.490722
 21
1.321777
  0
ARC
  8
MOULD-NEW
 10
0.71875
 20
1.295775
 40
0.03125
 50
0.001195
 51
56.310772
  0
LINE
  8
MOULD-NEW
 10
0.75
 11
0.75
 20
1.295776
 21
1.055649
  0
ARC
  8
MOULD-NEW
 10
0.71875
 20
1.055649
 40
0.03125
 50
284.036243
 51
0.0
  0
LINE
  8
MOULD-NEW
 10
0.726329
 11
0.648671
 20
1.025332
 21
1.005918
  0
LINE
  8
CONSTRUCTION
 10
0.152615
 11
0.10065
 20
-1.038482
 21
-1.166909
  0
LINE
  8
CONSTRUCTION
 10
0.10065
 11
0.20458
 20
-1.166909
 21
-1.166909
  0
LINE
  8
CONSTRUCTION
 10
0.20458
 11
0.152615
 20
-1.166909
 21
-1.038482
  0
LINE
  8
CONSTRUCTION
 10
0.152615
 11
0.559547
 20
-1.038482
 21
-1.03848
  0
LINE
  8
CONSTRUCTION
 10
0.559547
 11
0.507582
 20
-1.03848
 21
-1.166908
  0
LINE
  8
CONSTRUCTION
 10
0.507582
 11
0.611512
 20
-1.166908
 21
-1.166908
  0
LINE
  8
CONSTRUCTION
 10
0.611512
 11
0.559547
 20
-1.166908
 21
-1.03848
  0
LINE
  8
CONSTRUCTION
 10
0.559547
 11
0.966478
 20
-1.03848
 21
-1.03848
  0
LINE
  8
CONSTRUCTION
 10
0.966478
 11
0.914513
 20
-1.03848
 21
-1.166908
  0
LINE
  8
CONSTRUCTION
 10
0.914513
 11
1.018442
 20
-1.166908
 21
-1.166908
  0
LINE
  8
CONSTRUCTION
 10
1.018442
 11
0.966478
 20
-1.166908
 21
-1.03848
  0
LINE
  8
CONSTRUCTION
 10
0.966478
 11
1.373408
 20
-1.03848
 21
-1.03848
  0
LINE
  8
CONSTRUCTION
 10
1.373408
 11
1.321443
 20
-1.03848
 21
-1.166908
  0
LINE
  8
CONSTRUCTION
 10
1.321443
 11
1.425373
 20
-1.166908
 21
-1.166908
  0
LINE
  8
CONSTRUCTION
 10
1.425373
 11
1.373408
 20
-1.166908
 21
-1.03848
  0
LINE
  8
CONSTRUCTION
 10
1.373408
 11
1.780281
 20
-1.03848
 21
-1.038482
  0
LINE
  8
CONSTRUCTION
 10
1.780281
 11
1.728316
 20
-1.038482
 21
-1.166909
  0
LINE
  8
CONSTRUCTION
 10
1.728316
 11
1.832246
 20
-1.166909
 21
-1.166909
  0
LINE
  8
CONSTRUCTION
 10
1.832246
 11
1.780281
 20
-1.166909
 21
-1.038482
  0
LINE
  8
CONSTRUCTION
 10
0.0
 11
4.0
 20
-1.561751
 21
-1.561751
  0
TEXT
  8
TEXT
 10
0.10065
 20
-1.405784
 30
0.0
 40
0.224
 50
0.0
  1
DOVETAIL DESIGNS
  0
TEXT
  8
TEXT
 10
2.276036
 20
-1.551751
 30
0.0
 40
0.099
 50
0.0
  1
& MILLWORK INC.
  0
TEXT
  8
TEXT
 10
1.092458
 20
-1.640461
 30
0.0
 40
0.07
 50
0.0
  1
Established 1979
  0
TEXT
  8
TEXT
 10
0.1
 20
-1.8
 30
0.0
 40
0.1
 50
0.0
  1
Phone: (406) 248-5010    Website: www.dovetailmt.com
  0
TEXT
  8
TEXT
 10
0.0
 20
-0.25
 30
0.0
 40
0.15625
 50
0.0
  1
SE91
  0
TEXT
  8
TEXT
 10
0.0
 20
-0.5
 30
0.0
 40
0.1
 50
0.0
  1
3/4"x1-5/8"
  0
ENDSEC
  0
EOF
