  0
SECTION
  2
ENTITIES
  0
LINE
  8
A-SECT-1
 10
0.75
 11
0.802924
 20
0.125
 21
0.125
  0
ARC
  8
A-SECT-1
 10
0.802924
 20
0.16437
 40
0.03937
 50
270.0
 51
1.369288
  0
ARC
  8
A-SECT-1
 10
2.459028
 20
0.203955
 40
1.617207
 50
177.113238
 51
181.369239
  0
ARC
  8
A-SECT-1
 10
1.309041
 20
0.231537
 40
0.468276
 50
150.14989
 51
173.394897
  0
ARC
  8
A-SECT-1
 10
28.773817
 20
-15.571777
 40
32.15516
 50
149.620996
 51
150.084712
  0
ARC
  8
A-SECT-1
 10
0.615766
 20
0.923138
 40
0.478635
 50
330.803376
 51
13.310245
  0
ARC
  8
A-SECT-1
 10
0.682989
 20
0.939916
 40
0.409356
 50
13.191093
 51
80.578318
  0
LINE
  8
A-SECT-1
 10
0.75
 11
0.75
 20
1.34375
 21
1.5
  0
LINE
  8
A-SECT-1
 10
0.75
 11
0.0
 20
1.5
 21
1.5
  0
LINE
  8
A-SECT-1
 10
0.0
 11
0.0
 20
1.5
 21
0.0
  0
LINE
  8
A-SECT-1
 10
0.0
 11
0.75
 20
0.0
 21
0.0
  0
LINE
  8
A-SECT-1
 10
0.75
 11
0.75
 20
0.0
 21
0.125
  0
LINE
  8
A-SECT-1
 10
0.75
 11
0.75
 20
0.125
 21
0.0
  0
LINE
  8
CONSTRUCTION
 10
0.152615
 11
0.10065
 20
-1.038482
 21
-1.166909
  0
LINE
  8
CONSTRUCTION
 10
0.10065
 11
0.20458
 20
-1.166909
 21
-1.166909
  0
LINE
  8
CONSTRUCTION
 10
0.20458
 11
0.152615
 20
-1.166909
 21
-1.038482
  0
LINE
  8
CONSTRUCTION
 10
0.152615
 11
0.559547
 20
-1.038482
 21
-1.03848
  0
LINE
  8
CONSTRUCTION
 10
0.559547
 11
0.507582
 20
-1.03848
 21
-1.166908
  0
LINE
  8
CONSTRUCTION
 10
0.507582
 11
0.611512
 20
-1.166908
 21
-1.166908
  0
LINE
  8
CONSTRUCTION
 10
0.611512
 11
0.559547
 20
-1.166908
 21
-1.03848
  0
LINE
  8
CONSTRUCTION
 10
0.559547
 11
0.966478
 20
-1.03848
 21
-1.03848
  0
LINE
  8
CONSTRUCTION
 10
0.966478
 11
0.914513
 20
-1.03848
 21
-1.166908
  0
LINE
  8
CONSTRUCTION
 10
0.914513
 11
1.018442
 20
-1.166908
 21
-1.166908
  0
LINE
  8
CONSTRUCTION
 10
1.018442
 11
0.966478
 20
-1.166908
 21
-1.03848
  0
LINE
  8
CONSTRUCTION
 10
0.966478
 11
1.373408
 20
-1.03848
 21
-1.03848
  0
LINE
  8
CONSTRUCTION
 10
1.373408
 11
1.321443
 20
-1.03848
 21
-1.166908
  0
LINE
  8
CONSTRUCTION
 10
1.321443
 11
1.425373
 20
-1.166908
 21
-1.166908
  0
LINE
  8
CONSTRUCTION
 10
1.425373
 11
1.373408
 20
-1.166908
 21
-1.03848
  0
LINE
  8
CONSTRUCTION
 10
1.373408
 11
1.780281
 20
-1.03848
 21
-1.038482
  0
LINE
  8
CONSTRUCTION
 10
1.780281
 11
1.728316
 20
-1.038482
 21
-1.166909
  0
LINE
  8
CONSTRUCTION
 10
1.728316
 11
1.832246
 20
-1.166909
 21
-1.166909
  0
LINE
  8
CONSTRUCTION
 10
1.832246
 11
1.780281
 20
-1.166909
 21
-1.038482
  0
LINE
  8
CONSTRUCTION
 10
0.0
 11
4.0
 20
-1.561751
 21
-1.561751
  0
TEXT
  8
TEXT
 10
0.10065
 20
-1.405784
 30
0.0
 40
0.224
 50
0.0
  1
DOVETAIL DESIGNS
  0
TEXT
  8
TEXT
 10
2.276036
 20
-1.551751
 30
0.0
 40
0.099
 50
0.0
  1
& MILLWORK INC.
  0
TEXT
  8
TEXT
 10
1.092458
 20
-1.640461
 30
0.0
 40
0.07
 50
0.0
  1
Established 1979
  0
TEXT
  8
TEXT
 10
0.1
 20
-1.8
 30
0.0
 40
0.1
 50
0.0
  1
Phone: (406) 248-5010    Website: www.dovetailmt.com
  0
TEXT
  8
TEXT
 10
0.0
 20
-0.5
 30
0.0
 40
0.1
 50
0.0
  1
1-3/32"x1-1/2"
  0
TEXT
  8
TEXT
 10
0.0
 20
-0.25
 30
0.0
 40
0.15625
 50
0.0
  1
SE84
  0
ENDSEC
  0
EOF
