  0
SECTION
  2
ENTITIES
  0
ARC
  8
APS_GEOMETRY
 10
0.625
 20
2.875
 40
0.125
 50
277.180756
 51
90.0
  0
LINE
  8
APS_GEOMETRY
 10
0.625
 11
0.0
 20
3.0
 21
3.0
  0
LINE
  8
APS_GEOMETRY
 10
0.0
 11
0.0
 20
3.0
 21
0.0
  0
LINE
  8
APS_GEOMETRY
 10
0.0
 11
0.625
 20
0.0
 21
0.0
  0
ARC
  8
APS_GEOMETRY
 10
0.625
 20
0.125
 40
0.125
 50
270.0
 51
82.819244
  0
LINE
  8
APS_GEOMETRY
 10
0.640625
 11
0.640625
 20
0.24902
 21
0.34473
  0
ARC
  8
APS_GEOMETRY
 10
0.625003
 20
0.46875
 40
0.125
 50
277.179547
 51
82.820276
  0
LINE
  8
APS_GEOMETRY
 10
0.640625
 11
0.640625
 20
0.59277
 21
0.68848
  0
ARC
  8
APS_GEOMETRY
 10
0.625003
 20
0.8125
 40
0.125
 50
277.179547
 51
82.820276
  0
LINE
  8
APS_GEOMETRY
 10
0.640625
 11
0.640625
 20
0.93652
 21
1.03223
  0
ARC
  8
APS_GEOMETRY
 10
0.625003
 20
1.15625
 40
0.125
 50
277.179547
 51
82.820276
  0
LINE
  8
APS_GEOMETRY
 10
0.640625
 11
0.640625
 20
1.28027
 21
1.37598
  0
ARC
  8
APS_GEOMETRY
 10
0.625003
 20
1.5
 40
0.125
 50
277.179547
 51
82.820276
  0
LINE
  8
APS_GEOMETRY
 10
0.640625
 11
0.640625
 20
1.62402
 21
1.71973
  0
ARC
  8
APS_GEOMETRY
 10
0.625003
 20
1.84375
 40
0.125
 50
277.179547
 51
82.820276
  0
LINE
  8
APS_GEOMETRY
 10
0.640625
 11
0.640625
 20
1.96777
 21
2.06348
  0
ARC
  8
APS_GEOMETRY
 10
0.625003
 20
2.1875
 40
0.125
 50
277.179547
 51
82.820276
  0
LINE
  8
APS_GEOMETRY
 10
0.640625
 11
0.640625
 20
2.31152
 21
2.40723
  0
ARC
  8
APS_GEOMETRY
 10
0.625003
 20
2.53125
 40
0.125
 50
277.179547
 51
82.820276
  0
LINE
  8
APS_GEOMETRY
 10
0.640625
 11
0.640625
 20
2.65527
 21
2.75098
  0
LINE
  8
CONSTRUCTION
 10
0.152615
 11
0.10065
 20
-1.038482
 21
-1.166909
  0
LINE
  8
CONSTRUCTION
 10
0.10065
 11
0.20458
 20
-1.166909
 21
-1.166909
  0
LINE
  8
CONSTRUCTION
 10
0.20458
 11
0.152615
 20
-1.166909
 21
-1.038482
  0
LINE
  8
CONSTRUCTION
 10
0.152615
 11
0.559547
 20
-1.038482
 21
-1.03848
  0
LINE
  8
CONSTRUCTION
 10
0.559547
 11
0.507582
 20
-1.03848
 21
-1.166908
  0
LINE
  8
CONSTRUCTION
 10
0.507582
 11
0.611512
 20
-1.166908
 21
-1.166908
  0
LINE
  8
CONSTRUCTION
 10
0.611512
 11
0.559547
 20
-1.166908
 21
-1.03848
  0
LINE
  8
CONSTRUCTION
 10
0.559547
 11
0.966478
 20
-1.03848
 21
-1.03848
  0
LINE
  8
CONSTRUCTION
 10
0.966478
 11
0.914513
 20
-1.03848
 21
-1.166908
  0
LINE
  8
CONSTRUCTION
 10
0.914513
 11
1.018442
 20
-1.166908
 21
-1.166908
  0
LINE
  8
CONSTRUCTION
 10
1.018442
 11
0.966478
 20
-1.166908
 21
-1.03848
  0
LINE
  8
CONSTRUCTION
 10
0.966478
 11
1.373408
 20
-1.03848
 21
-1.03848
  0
LINE
  8
CONSTRUCTION
 10
1.373408
 11
1.321443
 20
-1.03848
 21
-1.166908
  0
LINE
  8
CONSTRUCTION
 10
1.321443
 11
1.425373
 20
-1.166908
 21
-1.166908
  0
LINE
  8
CONSTRUCTION
 10
1.425373
 11
1.373408
 20
-1.166908
 21
-1.03848
  0
LINE
  8
CONSTRUCTION
 10
1.373408
 11
1.780281
 20
-1.03848
 21
-1.038482
  0
LINE
  8
CONSTRUCTION
 10
1.780281
 11
1.728316
 20
-1.038482
 21
-1.166909
  0
LINE
  8
CONSTRUCTION
 10
1.728316
 11
1.832246
 20
-1.166909
 21
-1.166909
  0
LINE
  8
CONSTRUCTION
 10
1.832246
 11
1.780281
 20
-1.166909
 21
-1.038482
  0
LINE
  8
CONSTRUCTION
 10
0.0
 11
4.0
 20
-1.561751
 21
-1.561751
  0
TEXT
  8
TEXT
 10
0.10065
 20
-1.405784
 30
0.0
 40
0.224
 50
0.0
  1
DOVETAIL DESIGNS
  0
TEXT
  8
TEXT
 10
2.276036
 20
-1.551751
 30
0.0
 40
0.099
 50
0.0
  1
& MILLWORK INC.
  0
TEXT
  8
TEXT
 10
1.092458
 20
-1.640461
 30
0.0
 40
0.07
 50
0.0
  1
Established 1979
  0
TEXT
  8
TEXT
 10
0.1
 20
-1.8
 30
0.0
 40
0.1
 50
0.0
  1
Phone: (406) 248-5010    Website: www.dovetailmt.com
  0
TEXT
  8
TEXT
 10
0.0
 20
-0.25
 30
0.0
 40
0.15625
 50
0.0
  1
RD4
  0
TEXT
  8
TEXT
 10
0.0
 20
-0.5
 30
0.0
 40
0.1
 50
0.0
  1
3/4"x3"
  0
ENDSEC
  0
EOF
