  0
SECTION
  2
ENTITIES
  0
ARC
  8
APS_GEOMETRY
 10
0.5625
 20
5.6875
 40
0.1875
 50
274.780192
 51
90.0
  0
LINE
  8
APS_GEOMETRY
 10
0.5625
 11
0.0
 20
5.875
 21
5.875
  0
LINE
  8
APS_GEOMETRY
 10
0.0
 11
0.0
 20
5.875
 21
0.0
  0
LINE
  8
APS_GEOMETRY
 10
0.0
 11
0.5625
 20
0.0
 21
0.0
  0
ARC
  8
APS_GEOMETRY
 10
0.5625
 20
0.1875
 40
0.1875
 50
270.0
 51
85.219808
  0
LINE
  8
APS_GEOMETRY
 10
0.578125
 11
0.578125
 20
0.374348
 21
0.500652
  0
ARC
  8
APS_GEOMETRY
 10
0.562501
 20
0.6875
 40
0.1875
 50
274.779869
 51
85.22013
  0
LINE
  8
APS_GEOMETRY
 10
0.578125
 11
0.578125
 20
0.874348
 21
1.000652
  0
ARC
  8
APS_GEOMETRY
 10
0.562501
 20
1.1875
 40
0.1875
 50
274.779869
 51
85.22013
  0
LINE
  8
APS_GEOMETRY
 10
0.578125
 11
0.578125
 20
1.374348
 21
1.500652
  0
ARC
  8
APS_GEOMETRY
 10
0.562501
 20
1.6875
 40
0.1875
 50
274.779869
 51
85.22013
  0
LINE
  8
APS_GEOMETRY
 10
0.578125
 11
0.578125
 20
1.874348
 21
2.000652
  0
ARC
  8
APS_GEOMETRY
 10
0.562501
 20
2.1875
 40
0.1875
 50
274.779869
 51
85.22013
  0
LINE
  8
APS_GEOMETRY
 10
0.578125
 11
0.578125
 20
2.374348
 21
2.500652
  0
ARC
  8
APS_GEOMETRY
 10
0.562501
 20
2.6875
 40
0.1875
 50
274.779869
 51
85.22013
  0
LINE
  8
APS_GEOMETRY
 10
0.578125
 11
0.578125
 20
2.874348
 21
3.000652
  0
ARC
  8
APS_GEOMETRY
 10
0.562501
 20
3.1875
 40
0.1875
 50
274.779869
 51
85.22013
  0
LINE
  8
APS_GEOMETRY
 10
0.578125
 11
0.578125
 20
3.374348
 21
3.500652
  0
ARC
  8
APS_GEOMETRY
 10
0.562501
 20
3.6875
 40
0.1875
 50
274.779869
 51
85.22013
  0
LINE
  8
APS_GEOMETRY
 10
0.578125
 11
0.578125
 20
3.874348
 21
4.000652
  0
ARC
  8
APS_GEOMETRY
 10
0.562501
 20
4.1875
 40
0.1875
 50
274.779869
 51
85.22013
  0
LINE
  8
APS_GEOMETRY
 10
0.578125
 11
0.578125
 20
4.374348
 21
4.500652
  0
ARC
  8
APS_GEOMETRY
 10
0.562501
 20
4.6875
 40
0.1875
 50
274.779869
 51
85.22013
  0
LINE
  8
APS_GEOMETRY
 10
0.578125
 11
0.578125
 20
4.874348
 21
5.000652
  0
ARC
  8
APS_GEOMETRY
 10
0.562501
 20
5.1875
 40
0.1875
 50
274.779869
 51
85.22013
  0
LINE
  8
APS_GEOMETRY
 10
0.578125
 11
0.578125
 20
5.374348
 21
5.500652
  0
LINE
  8
CONSTRUCTION
 10
0.152615
 11
0.10065
 20
-1.038482
 21
-1.166909
  0
LINE
  8
CONSTRUCTION
 10
0.10065
 11
0.20458
 20
-1.166909
 21
-1.166909
  0
LINE
  8
CONSTRUCTION
 10
0.20458
 11
0.152615
 20
-1.166909
 21
-1.038482
  0
LINE
  8
CONSTRUCTION
 10
0.152615
 11
0.559547
 20
-1.038482
 21
-1.03848
  0
LINE
  8
CONSTRUCTION
 10
0.559547
 11
0.507582
 20
-1.03848
 21
-1.166908
  0
LINE
  8
CONSTRUCTION
 10
0.507582
 11
0.611512
 20
-1.166908
 21
-1.166908
  0
LINE
  8
CONSTRUCTION
 10
0.611512
 11
0.559547
 20
-1.166908
 21
-1.03848
  0
LINE
  8
CONSTRUCTION
 10
0.559547
 11
0.966478
 20
-1.03848
 21
-1.03848
  0
LINE
  8
CONSTRUCTION
 10
0.966478
 11
0.914513
 20
-1.03848
 21
-1.166908
  0
LINE
  8
CONSTRUCTION
 10
0.914513
 11
1.018442
 20
-1.166908
 21
-1.166908
  0
LINE
  8
CONSTRUCTION
 10
1.018442
 11
0.966478
 20
-1.166908
 21
-1.03848
  0
LINE
  8
CONSTRUCTION
 10
0.966478
 11
1.373408
 20
-1.03848
 21
-1.03848
  0
LINE
  8
CONSTRUCTION
 10
1.373408
 11
1.321443
 20
-1.03848
 21
-1.166908
  0
LINE
  8
CONSTRUCTION
 10
1.321443
 11
1.425373
 20
-1.166908
 21
-1.166908
  0
LINE
  8
CONSTRUCTION
 10
1.425373
 11
1.373408
 20
-1.166908
 21
-1.03848
  0
LINE
  8
CONSTRUCTION
 10
1.373408
 11
1.780281
 20
-1.03848
 21
-1.038482
  0
LINE
  8
CONSTRUCTION
 10
1.780281
 11
1.728316
 20
-1.038482
 21
-1.166909
  0
LINE
  8
CONSTRUCTION
 10
1.728316
 11
1.832246
 20
-1.166909
 21
-1.166909
  0
LINE
  8
CONSTRUCTION
 10
1.832246
 11
1.780281
 20
-1.166909
 21
-1.038482
  0
LINE
  8
CONSTRUCTION
 10
0.0
 11
4.0
 20
-1.561751
 21
-1.561751
  0
TEXT
  8
TEXT
 10
0.10065
 20
-1.405784
 30
0.0
 40
0.224
 50
0.0
  1
DOVETAIL DESIGNS
  0
TEXT
  8
TEXT
 10
2.276036
 20
-1.551751
 30
0.0
 40
0.099
 50
0.0
  1
& MILLWORK INC.
  0
TEXT
  8
TEXT
 10
1.092458
 20
-1.640461
 30
0.0
 40
0.07
 50
0.0
  1
Established 1979
  0
TEXT
  8
TEXT
 10
0.1
 20
-1.8
 30
0.0
 40
0.1
 50
0.0
  1
Phone: (406) 248-5010    Website: www.dovetailmt.com
  0
TEXT
  8
TEXT
 10
0.0
 20
-0.5
 30
0.0
 40
0.1
 50
0.0
  1
3/4"x5-7/8"
  0
TEXT
  8
TEXT
 10
0.0
 20
-0.25
 30
0.0
 40
0.15625
 50
0.0
  1
RD3
  0
ENDSEC
  0
EOF
