  0
SECTION
  2
ENTITIES
  0
ARC
  8
APS_GEOMETRY
 10
0.5
 20
4.46875
 40
0.25
 50
273.583321
 51
90.000001
  0
LINE
  8
APS_GEOMETRY
 10
0.5
 11
0.0
 20
4.71875
 21
4.71875
  0
LINE
  8
APS_GEOMETRY
 10
0.0
 11
0.0
 20
4.71875
 21
0.0
  0
LINE
  8
APS_GEOMETRY
 10
0.0
 11
0.5
 20
0.0
 21
0.0
  0
ARC
  8
APS_GEOMETRY
 10
0.5
 20
0.25
 40
0.25
 50
270.0
 51
86.416678
  0
LINE
  8
APS_GEOMETRY
 10
0.515625
 11
0.515625
 20
0.499511
 21
0.603167
  0
ARC
  8
APS_GEOMETRY
 10
0.500009
 20
0.852679
 40
0.25
 50
273.581241
 51
86.418773
  0
LINE
  8
APS_GEOMETRY
 10
0.515625
 11
0.515625
 20
1.102191
 21
1.205846
  0
ARC
  8
APS_GEOMETRY
 10
0.499997
 20
1.455357
 40
0.25
 50
273.583993
 51
86.416024
  0
LINE
  8
APS_GEOMETRY
 10
0.515625
 11
0.515625
 20
1.704868
 21
1.808524
  0
ARC
  8
APS_GEOMETRY
 10
0.500009
 20
2.058036
 40
0.25
 50
273.581241
 51
86.418773
  0
LINE
  8
APS_GEOMETRY
 10
0.515625
 11
0.515625
 20
2.307548
 21
2.411203
  0
ARC
  8
APS_GEOMETRY
 10
0.499997
 20
2.660714
 40
0.25
 50
273.583993
 51
86.416024
  0
LINE
  8
APS_GEOMETRY
 10
0.515625
 11
0.515625
 20
2.910225
 21
3.013882
  0
ARC
  8
APS_GEOMETRY
 10
0.499997
 20
3.263393
 40
0.25
 50
273.583993
 51
86.416024
  0
LINE
  8
APS_GEOMETRY
 10
0.515625
 11
0.515625
 20
3.512904
 21
3.61656
  0
ARC
  8
APS_GEOMETRY
 10
0.499997
 20
3.866071
 40
0.25
 50
273.583993
 51
86.416024
  0
LINE
  8
APS_GEOMETRY
 10
0.515625
 11
0.515625
 20
4.115582
 21
4.219239
  0
LINE
  8
CONSTRUCTION
 10
0.152615
 11
0.10065
 20
-1.038482
 21
-1.166909
  0
LINE
  8
CONSTRUCTION
 10
0.10065
 11
0.20458
 20
-1.166909
 21
-1.166909
  0
LINE
  8
CONSTRUCTION
 10
0.20458
 11
0.152615
 20
-1.166909
 21
-1.038482
  0
LINE
  8
CONSTRUCTION
 10
0.152615
 11
0.559547
 20
-1.038482
 21
-1.03848
  0
LINE
  8
CONSTRUCTION
 10
0.559547
 11
0.507582
 20
-1.03848
 21
-1.166908
  0
LINE
  8
CONSTRUCTION
 10
0.507582
 11
0.611512
 20
-1.166908
 21
-1.166908
  0
LINE
  8
CONSTRUCTION
 10
0.611512
 11
0.559547
 20
-1.166908
 21
-1.03848
  0
LINE
  8
CONSTRUCTION
 10
0.559547
 11
0.966478
 20
-1.03848
 21
-1.03848
  0
LINE
  8
CONSTRUCTION
 10
0.966478
 11
0.914513
 20
-1.03848
 21
-1.166908
  0
LINE
  8
CONSTRUCTION
 10
0.914513
 11
1.018442
 20
-1.166908
 21
-1.166908
  0
LINE
  8
CONSTRUCTION
 10
1.018442
 11
0.966478
 20
-1.166908
 21
-1.03848
  0
LINE
  8
CONSTRUCTION
 10
0.966478
 11
1.373408
 20
-1.03848
 21
-1.03848
  0
LINE
  8
CONSTRUCTION
 10
1.373408
 11
1.321443
 20
-1.03848
 21
-1.166908
  0
LINE
  8
CONSTRUCTION
 10
1.321443
 11
1.425373
 20
-1.166908
 21
-1.166908
  0
LINE
  8
CONSTRUCTION
 10
1.425373
 11
1.373408
 20
-1.166908
 21
-1.03848
  0
LINE
  8
CONSTRUCTION
 10
1.373408
 11
1.780281
 20
-1.03848
 21
-1.038482
  0
LINE
  8
CONSTRUCTION
 10
1.780281
 11
1.728316
 20
-1.038482
 21
-1.166909
  0
LINE
  8
CONSTRUCTION
 10
1.728316
 11
1.832246
 20
-1.166909
 21
-1.166909
  0
LINE
  8
CONSTRUCTION
 10
1.832246
 11
1.780281
 20
-1.166909
 21
-1.038482
  0
LINE
  8
CONSTRUCTION
 10
0.0
 11
4.0
 20
-1.561751
 21
-1.561751
  0
TEXT
  8
TEXT
 10
0.10065
 20
-1.405784
 30
0.0
 40
0.224
 50
0.0
  1
DOVETAIL DESIGNS
  0
TEXT
  8
TEXT
 10
2.276036
 20
-1.551751
 30
0.0
 40
0.099
 50
0.0
  1
& MILLWORK INC.
  0
TEXT
  8
TEXT
 10
1.092458
 20
-1.640461
 30
0.0
 40
0.07
 50
0.0
  1
Established 1979
  0
TEXT
  8
TEXT
 10
0.1
 20
-1.8
 30
0.0
 40
0.1
 50
0.0
  1
Phone: (406) 248-5010    Website: www.dovetailmt.com
  0
TEXT
  8
TEXT
 10
0.0
 20
-0.25
 30
0.0
 40
0.15625
 50
0.0
  1
RD2
  0
TEXT
  8
TEXT
 10
0.0
 20
-0.5
 30
0.0
 40
0.1
 50
0.0
  1
3/4"x4-23/32"
  0
ENDSEC
  0
EOF
