  0
SECTION
  2
ENTITIES
  0
ARC
  8
MOULD-NEW
 10
4.843749
 20
1.167216
 40
0.406249
 50
103.342296
 51
175.206345
  0
LINE
  8
MOULD-NEW
 10
4.438921
 11
4.373907
 20
1.201165
 21
0.425905
  0
ARC
  8
MOULD-NEW
 10
4.0625
 20
0.45202
 40
0.3125
 50
281.536995
 51
355.206312
  0
LINE
  8
MOULD-NEW
 10
4.125
 11
4.125
 20
0.145834
 21
0.0
  0
LINE
  8
MOULD-NEW
 10
4.125
 11
0.625
 20
0.0
 21
0.0
  0
LINE
  8
MOULD-NEW
 10
0.625
 11
0.625
 20
0.0
 21
0.145833
  0
ARC
  8
MOULD-NEW
 10
0.6875
 20
0.452019
 40
0.3125
 50
184.793457
 51
258.463028
  0
LINE
  8
MOULD-NEW
 10
0.376093
 11
0.311079
 20
0.425905
 21
1.201165
  0
ARC
  8
MOULD-NEW
 10
-0.093749
 20
1.167216
 40
0.406249
 50
4.793625
 51
76.657703
  0
LINE
  8
MOULD-NEW
 10
0.0
 11
0.0
 20
1.5625
 21
2.1875
  0
LINE
  8
MOULD-NEW
 10
0.0
 11
2.375
 20
2.1875
 21
2.75
  0
LINE
  8
MOULD-NEW
 10
2.375
 11
4.75
 20
2.75
 21
2.1875
  0
LINE
  8
MOULD-NEW
 10
4.75
 11
4.75
 20
2.1875
 21
1.5625
  0
LINE
  8
CONSTRUCTION
 10
0.152615
 11
0.10065
 20
-1.038482
 21
-1.166909
  0
LINE
  8
CONSTRUCTION
 10
0.10065
 11
0.20458
 20
-1.166909
 21
-1.166909
  0
LINE
  8
CONSTRUCTION
 10
0.20458
 11
0.152615
 20
-1.166909
 21
-1.038482
  0
LINE
  8
CONSTRUCTION
 10
0.152615
 11
0.559547
 20
-1.038482
 21
-1.03848
  0
LINE
  8
CONSTRUCTION
 10
0.559547
 11
0.507582
 20
-1.03848
 21
-1.166908
  0
LINE
  8
CONSTRUCTION
 10
0.507582
 11
0.611512
 20
-1.166908
 21
-1.166908
  0
LINE
  8
CONSTRUCTION
 10
0.611512
 11
0.559547
 20
-1.166908
 21
-1.03848
  0
LINE
  8
CONSTRUCTION
 10
0.559547
 11
0.966478
 20
-1.03848
 21
-1.03848
  0
LINE
  8
CONSTRUCTION
 10
0.966478
 11
0.914513
 20
-1.03848
 21
-1.166908
  0
LINE
  8
CONSTRUCTION
 10
0.914513
 11
1.018442
 20
-1.166908
 21
-1.166908
  0
LINE
  8
CONSTRUCTION
 10
1.018442
 11
0.966478
 20
-1.166908
 21
-1.03848
  0
LINE
  8
CONSTRUCTION
 10
0.966478
 11
1.373408
 20
-1.03848
 21
-1.03848
  0
LINE
  8
CONSTRUCTION
 10
1.373408
 11
1.321443
 20
-1.03848
 21
-1.166908
  0
LINE
  8
CONSTRUCTION
 10
1.321443
 11
1.425373
 20
-1.166908
 21
-1.166908
  0
LINE
  8
CONSTRUCTION
 10
1.425373
 11
1.373408
 20
-1.166908
 21
-1.03848
  0
LINE
  8
CONSTRUCTION
 10
1.373408
 11
1.780281
 20
-1.03848
 21
-1.038482
  0
LINE
  8
CONSTRUCTION
 10
1.780281
 11
1.728316
 20
-1.038482
 21
-1.166909
  0
LINE
  8
CONSTRUCTION
 10
1.728316
 11
1.832246
 20
-1.166909
 21
-1.166909
  0
LINE
  8
CONSTRUCTION
 10
1.832246
 11
1.780281
 20
-1.166909
 21
-1.038482
  0
LINE
  8
CONSTRUCTION
 10
0.0
 11
4.0
 20
-1.561751
 21
-1.561751
  0
TEXT
  8
TEXT
 10
0.0
 20
-0.25
 30
0.0
 40
0.15625
 50
0.0
  1
PC1
  0
TEXT
  8
TEXT
 10
0.0
 20
-0.5
 30
0.0
 40
0.1
 50
0.0
  1
4-3/4"x2-3/4"
  0
TEXT
  8
TEXT
 10
0.10065
 20
-1.405784
 30
0.0
 40
0.224
 50
0.0
  1
DOVETAIL DESIGNS
  0
TEXT
  8
TEXT
 10
2.276036
 20
-1.551751
 30
0.0
 40
0.099
 50
0.0
  1
& MILLWORK INC.
  0
TEXT
  8
TEXT
 10
1.092458
 20
-1.640461
 30
0.0
 40
0.07
 50
0.0
  1
Established 1979
  0
TEXT
  8
TEXT
 10
0.1
 20
-1.8
 30
0.0
 40
0.1
 50
0.0
  1
Phone: (406) 248-5010    Website: www.dovetailmt.com
  0
ENDSEC
  0
EOF
