  0
SECTION
  2
ENTITIES
  0
LINE
  8
APS_GEOMETRY
 10
0.500026
 11
0.55129
 20
0.0
 21
0.0
  0
LINE
  8
APS_GEOMETRY
 10
0.55129
 11
0.750026
 20
0.0
 21
0.198736
  0
LINE
  8
APS_GEOMETRY
 10
0.750026
 11
0.75
 20
0.198736
 21
7.373847
  0
LINE
  8
APS_GEOMETRY
 10
0.75
 11
0.545626
 20
7.373847
 21
7.5625
  0
ARC
  8
APS_GEOMETRY
 10
0.449745
 20
7.8125
 40
0.267756
 50
290.982954
 51
69.017046
  0
LINE
  8
APS_GEOMETRY
 10
0.545626
 11
0.545626
 20
8.0625
 21
8.125
  0
ARC
  8
APS_GEOMETRY
 10
0.449745
 20
8.375
 40
0.267756
 50
290.983064
 51
67.719068
  0
LINE
  8
APS_GEOMETRY
 10
0.551264
 11
0.5
 20
8.622764
 21
8.622764
  0
LINE
  8
APS_GEOMETRY
 10
0.5
 11
0.5
 20
8.622764
 21
8.875025
  0
LINE
  8
APS_GEOMETRY
 10
0.5
 11
0.25
 20
8.875025
 21
8.875025
  0
LINE
  8
APS_GEOMETRY
 10
0.25
 11
0.25
 20
8.875025
 21
8.625025
  0
LINE
  8
APS_GEOMETRY
 10
0.25
 11
0.0
 20
8.625025
 21
8.625025
  0
LINE
  8
APS_GEOMETRY
 10
0.0
 11
0.0
 20
8.625025
 21
7.425025
  0
LINE
  8
APS_GEOMETRY
 10
0.0
 11
0.124739
 20
7.425025
 21
7.425025
  0
LINE
  8
APS_GEOMETRY
 10
0.124739
 11
0.124739
 20
7.425025
 21
7.312525
  0
LINE
  8
APS_GEOMETRY
 10
0.124739
 11
-0.000223
 20
7.312525
 21
7.312525
  0
LINE
  8
APS_GEOMETRY
 10
-0.000223
 11
0.0
 20
7.312525
 21
6.425025
  0
LINE
  8
APS_GEOMETRY
 10
0.0
 11
0.124777
 20
6.425025
 21
6.425025
  0
LINE
  8
APS_GEOMETRY
 10
0.124777
 11
0.124777
 20
6.425025
 21
6.312525
  0
LINE
  8
APS_GEOMETRY
 10
0.124777
 11
-0.000186
 20
6.312525
 21
6.312525
  0
LINE
  8
APS_GEOMETRY
 10
-0.000186
 11
0.0
 20
6.312525
 21
5.425025
  0
LINE
  8
APS_GEOMETRY
 10
0.0
 11
0.124814
 20
5.425025
 21
5.425025
  0
LINE
  8
APS_GEOMETRY
 10
0.124814
 11
0.124814
 20
5.425025
 21
5.312525
  0
LINE
  8
APS_GEOMETRY
 10
0.124814
 11
-0.000149
 20
5.312525
 21
5.312525
  0
LINE
  8
APS_GEOMETRY
 10
-0.000149
 11
0.0
 20
5.312525
 21
4.425025
  0
LINE
  8
APS_GEOMETRY
 10
0.0
 11
0.124851
 20
4.425025
 21
4.425025
  0
LINE
  8
APS_GEOMETRY
 10
0.124851
 11
0.124851
 20
4.425025
 21
4.312525
  0
LINE
  8
APS_GEOMETRY
 10
0.124851
 11
-0.000112
 20
4.312525
 21
4.312525
  0
LINE
  8
APS_GEOMETRY
 10
-0.000112
 11
0.0
 20
4.312525
 21
3.425025
  0
LINE
  8
APS_GEOMETRY
 10
0.0
 11
0.124888
 20
3.425025
 21
3.425025
  0
LINE
  8
APS_GEOMETRY
 10
0.124888
 11
0.124888
 20
3.425025
 21
3.312525
  0
LINE
  8
APS_GEOMETRY
 10
0.124888
 11
-0.000074
 20
3.312525
 21
3.312525
  0
LINE
  8
APS_GEOMETRY
 10
-0.000074
 11
0.0
 20
3.312525
 21
2.425025
  0
LINE
  8
APS_GEOMETRY
 10
0.0
 11
0.124926
 20
2.425025
 21
2.425025
  0
LINE
  8
APS_GEOMETRY
 10
0.124926
 11
0.124926
 20
2.425025
 21
2.312525
  0
LINE
  8
APS_GEOMETRY
 10
0.124926
 11
0.0
 20
2.312525
 21
2.312525
  0
LINE
  8
APS_GEOMETRY
 10
0.0
 11
0.0
 20
2.312525
 21
1.425025
  0
LINE
  8
APS_GEOMETRY
 10
0.0
 11
0.124963
 20
1.425025
 21
1.425025
  0
LINE
  8
APS_GEOMETRY
 10
0.124963
 11
0.124963
 20
1.425025
 21
1.312525
  0
LINE
  8
APS_GEOMETRY
 10
0.124963
 11
0.0
 20
1.312525
 21
1.312525
  0
LINE
  8
APS_GEOMETRY
 10
0.0
 11
0.0
 20
1.312525
 21
0.0
  0
LINE
  8
APS_GEOMETRY
 10
0.0
 11
0.250026
 20
0.0
 21
0.0
  0
LINE
  8
APS_GEOMETRY
 10
0.250026
 11
0.250026
 20
0.0
 21
0.3125
  0
LINE
  8
APS_GEOMETRY
 10
0.250026
 11
0.500026
 20
0.3125
 21
0.3125
  0
LINE
  8
APS_GEOMETRY
 10
0.500026
 11
0.500026
 20
0.3125
 21
0.0
  0
LINE
  8
APS_GEOMETRY
 10
0.500026
 11
0.500026
 20
0.0
 21
0.3125
  0
LINE
  8
CONSTRUCTION
 10
0.152615
 11
0.10065
 20
-1.038482
 21
-1.166909
  0
LINE
  8
CONSTRUCTION
 10
0.10065
 11
0.20458
 20
-1.166909
 21
-1.166909
  0
LINE
  8
CONSTRUCTION
 10
0.20458
 11
0.152615
 20
-1.166909
 21
-1.038482
  0
LINE
  8
CONSTRUCTION
 10
0.152615
 11
0.559547
 20
-1.038482
 21
-1.03848
  0
LINE
  8
CONSTRUCTION
 10
0.559547
 11
0.507582
 20
-1.03848
 21
-1.166908
  0
LINE
  8
CONSTRUCTION
 10
0.507582
 11
0.611512
 20
-1.166908
 21
-1.166908
  0
LINE
  8
CONSTRUCTION
 10
0.611512
 11
0.559547
 20
-1.166908
 21
-1.03848
  0
LINE
  8
CONSTRUCTION
 10
0.559547
 11
0.966478
 20
-1.03848
 21
-1.03848
  0
LINE
  8
CONSTRUCTION
 10
0.966478
 11
0.914513
 20
-1.03848
 21
-1.166908
  0
LINE
  8
CONSTRUCTION
 10
0.914513
 11
1.018442
 20
-1.166908
 21
-1.166908
  0
LINE
  8
CONSTRUCTION
 10
1.018442
 11
0.966478
 20
-1.166908
 21
-1.03848
  0
LINE
  8
CONSTRUCTION
 10
0.966478
 11
1.373408
 20
-1.03848
 21
-1.03848
  0
LINE
  8
CONSTRUCTION
 10
1.373408
 11
1.321443
 20
-1.03848
 21
-1.166908
  0
LINE
  8
CONSTRUCTION
 10
1.321443
 11
1.425373
 20
-1.166908
 21
-1.166908
  0
LINE
  8
CONSTRUCTION
 10
1.425373
 11
1.373408
 20
-1.166908
 21
-1.03848
  0
LINE
  8
CONSTRUCTION
 10
1.373408
 11
1.780281
 20
-1.03848
 21
-1.038482
  0
LINE
  8
CONSTRUCTION
 10
1.780281
 11
1.728316
 20
-1.038482
 21
-1.166909
  0
LINE
  8
CONSTRUCTION
 10
1.728316
 11
1.832246
 20
-1.166909
 21
-1.166909
  0
LINE
  8
CONSTRUCTION
 10
1.832246
 11
1.780281
 20
-1.166909
 21
-1.038482
  0
LINE
  8
CONSTRUCTION
 10
0.0
 11
4.0
 20
-1.561751
 21
-1.561751
  0
TEXT
  8
TEXT
 10
0.10065
 20
-1.405784
 30
0.0
 40
0.224
 50
0.0
  1
DOVETAIL DESIGNS
  0
TEXT
  8
TEXT
 10
2.276036
 20
-1.551751
 30
0.0
 40
0.099
 50
0.0
  1
& MILLWORK INC.
  0
TEXT
  8
TEXT
 10
1.092458
 20
-1.640461
 30
0.0
 40
0.07
 50
0.0
  1
Established 1979
  0
TEXT
  8
TEXT
 10
0.1
 20
-1.8
 30
0.0
 40
0.1
 50
0.0
  1
Phone: (406) 248-5010    Website: www.dovetailmt.com
  0
TEXT
  8
TEXT
 10
0.0
 20
-0.8
 30
0.0
 40
0.1
 50
0.0
  1
8-5/8"face
  0
TEXT
  8
TEXT
 10
0.0
 20
-0.65
 30
0.0
 40
0.1
 50
0.0
  1
x 8-7/8"
  0
TEXT
  8
TEXT
 10
0.0
 20
-0.5
 30
0.0
 40
0.1
 50
0.0
  1
5/8"min
  0
TEXT
  8
TEXT
 10
0.0
 20
-0.25
 30
0.0
 40
0.15625
 50
0.0
  1
PB107
  0
ENDSEC
  0
EOF
