  0
SECTION
  2
ENTITIES
  0
ARC
  8
APS_GEOMETRY
 10
0.546972
 20
7.09375
 40
0.1565
 50
280.223864
 51
79.776136
  0
LINE
  8
APS_GEOMETRY
 10
0.57475
 11
0.702559
 20
7.247765
 21
7.375574
  0
ARC
  8
APS_GEOMETRY
 10
1.097245
 20
7.78125
 40
0.565995
 50
134.213301
 51
225.786695
  0
LINE
  8
APS_GEOMETRY
 10
0.702559
 11
0.574894
 20
8.186926
 21
8.314761
  0
ARC
  8
APS_GEOMETRY
 10
0.546972
 20
8.46875
 40
0.1565
 50
280.27747
 51
79.722677
  0
LINE
  8
APS_GEOMETRY
 10
0.574894
 11
0.5
 20
8.622739
 21
8.622739
  0
LINE
  8
APS_GEOMETRY
 10
0.5
 11
0.5
 20
8.622739
 21
8.875
  0
LINE
  8
APS_GEOMETRY
 10
0.5
 11
0.25
 20
8.875
 21
8.875
  0
LINE
  8
APS_GEOMETRY
 10
0.25
 11
0.25
 20
8.875
 21
8.625
  0
LINE
  8
APS_GEOMETRY
 10
0.25
 11
0.0
 20
8.625
 21
8.625
  0
LINE
  8
APS_GEOMETRY
 10
0.0
 11
0.0
 20
8.625
 21
7.425
  0
LINE
  8
APS_GEOMETRY
 10
0.0
 11
0.124739
 20
7.425
 21
7.425
  0
LINE
  8
APS_GEOMETRY
 10
0.124739
 11
0.124739
 20
7.425
 21
7.3125
  0
LINE
  8
APS_GEOMETRY
 10
0.124739
 11
-0.000223
 20
7.3125
 21
7.3125
  0
LINE
  8
APS_GEOMETRY
 10
-0.000223
 11
0.0
 20
7.3125
 21
6.425
  0
LINE
  8
APS_GEOMETRY
 10
0.0
 11
0.124777
 20
6.425
 21
6.425
  0
LINE
  8
APS_GEOMETRY
 10
0.124777
 11
0.124777
 20
6.425
 21
6.3125
  0
LINE
  8
APS_GEOMETRY
 10
0.124777
 11
-0.000186
 20
6.3125
 21
6.3125
  0
LINE
  8
APS_GEOMETRY
 10
-0.000186
 11
0.0
 20
6.3125
 21
5.425
  0
LINE
  8
APS_GEOMETRY
 10
0.0
 11
0.124814
 20
5.425
 21
5.425
  0
LINE
  8
APS_GEOMETRY
 10
0.124814
 11
0.124814
 20
5.425
 21
5.3125
  0
LINE
  8
APS_GEOMETRY
 10
0.124814
 11
-0.000149
 20
5.3125
 21
5.3125
  0
LINE
  8
APS_GEOMETRY
 10
-0.000149
 11
0.0
 20
5.3125
 21
4.425
  0
LINE
  8
APS_GEOMETRY
 10
0.0
 11
0.124851
 20
4.425
 21
4.425
  0
LINE
  8
APS_GEOMETRY
 10
0.124851
 11
0.124851
 20
4.425
 21
4.3125
  0
LINE
  8
APS_GEOMETRY
 10
0.124851
 11
-0.000112
 20
4.3125
 21
4.3125
  0
LINE
  8
APS_GEOMETRY
 10
-0.000112
 11
0.0
 20
4.3125
 21
3.425
  0
LINE
  8
APS_GEOMETRY
 10
0.0
 11
0.124888
 20
3.425
 21
3.425
  0
LINE
  8
APS_GEOMETRY
 10
0.124888
 11
0.124888
 20
3.425
 21
3.3125
  0
LINE
  8
APS_GEOMETRY
 10
0.124888
 11
-0.000074
 20
3.3125
 21
3.3125
  0
LINE
  8
APS_GEOMETRY
 10
-0.000074
 11
0.0
 20
3.3125
 21
2.425
  0
LINE
  8
APS_GEOMETRY
 10
0.0
 11
0.124926
 20
2.425
 21
2.425
  0
LINE
  8
APS_GEOMETRY
 10
0.124926
 11
0.124926
 20
2.425
 21
2.3125
  0
LINE
  8
APS_GEOMETRY
 10
0.124926
 11
0.0
 20
2.3125
 21
2.3125
  0
LINE
  8
APS_GEOMETRY
 10
0.0
 11
0.0
 20
2.3125
 21
1.425
  0
LINE
  8
APS_GEOMETRY
 10
0.0
 11
0.124963
 20
1.425
 21
1.425
  0
LINE
  8
APS_GEOMETRY
 10
0.124963
 11
0.124963
 20
1.425
 21
1.3125
  0
LINE
  8
APS_GEOMETRY
 10
0.124963
 11
0.0
 20
1.3125
 21
1.3125
  0
LINE
  8
APS_GEOMETRY
 10
0.0
 11
0.0
 20
1.3125
 21
0.0
  0
LINE
  8
APS_GEOMETRY
 10
0.0
 11
0.25
 20
0.0
 21
0.0
  0
LINE
  8
APS_GEOMETRY
 10
0.25
 11
0.25
 20
0.0
 21
0.3125
  0
LINE
  8
APS_GEOMETRY
 10
0.25
 11
0.53125
 20
0.3125
 21
0.3125
  0
LINE
  8
APS_GEOMETRY
 10
0.53125
 11
0.53125
 20
0.3125
 21
0.0
  0
LINE
  8
APS_GEOMETRY
 10
0.53125
 11
0.588903
 20
0.0
 21
0.0
  0
LINE
  8
APS_GEOMETRY
 10
0.588903
 11
0.75
 20
0.0
 21
0.161097
  0
LINE
  8
APS_GEOMETRY
 10
0.75
 11
0.75
 20
0.161097
 21
6.764485
  0
LINE
  8
APS_GEOMETRY
 10
0.75
 11
0.57475
 20
6.764485
 21
6.939735
  0
LINE
  8
CONSTRUCTION
 10
0.152615
 11
0.10065
 20
-1.038482
 21
-1.166909
  0
LINE
  8
CONSTRUCTION
 10
0.10065
 11
0.20458
 20
-1.166909
 21
-1.166909
  0
LINE
  8
CONSTRUCTION
 10
0.20458
 11
0.152615
 20
-1.166909
 21
-1.038482
  0
LINE
  8
CONSTRUCTION
 10
0.152615
 11
0.559547
 20
-1.038482
 21
-1.03848
  0
LINE
  8
CONSTRUCTION
 10
0.559547
 11
0.507582
 20
-1.03848
 21
-1.166908
  0
LINE
  8
CONSTRUCTION
 10
0.507582
 11
0.611512
 20
-1.166908
 21
-1.166908
  0
LINE
  8
CONSTRUCTION
 10
0.611512
 11
0.559547
 20
-1.166908
 21
-1.03848
  0
LINE
  8
CONSTRUCTION
 10
0.559547
 11
0.966478
 20
-1.03848
 21
-1.03848
  0
LINE
  8
CONSTRUCTION
 10
0.966478
 11
0.914513
 20
-1.03848
 21
-1.166908
  0
LINE
  8
CONSTRUCTION
 10
0.914513
 11
1.018442
 20
-1.166908
 21
-1.166908
  0
LINE
  8
CONSTRUCTION
 10
1.018442
 11
0.966478
 20
-1.166908
 21
-1.03848
  0
LINE
  8
CONSTRUCTION
 10
0.966478
 11
1.373408
 20
-1.03848
 21
-1.03848
  0
LINE
  8
CONSTRUCTION
 10
1.373408
 11
1.321443
 20
-1.03848
 21
-1.166908
  0
LINE
  8
CONSTRUCTION
 10
1.321443
 11
1.425373
 20
-1.166908
 21
-1.166908
  0
LINE
  8
CONSTRUCTION
 10
1.425373
 11
1.373408
 20
-1.166908
 21
-1.03848
  0
LINE
  8
CONSTRUCTION
 10
1.373408
 11
1.780281
 20
-1.03848
 21
-1.038482
  0
LINE
  8
CONSTRUCTION
 10
1.780281
 11
1.728316
 20
-1.038482
 21
-1.166909
  0
LINE
  8
CONSTRUCTION
 10
1.728316
 11
1.832246
 20
-1.166909
 21
-1.166909
  0
LINE
  8
CONSTRUCTION
 10
1.832246
 11
1.780281
 20
-1.166909
 21
-1.038482
  0
LINE
  8
CONSTRUCTION
 10
0.0
 11
4.0
 20
-1.561751
 21
-1.561751
  0
TEXT
  8
TEXT
 10
0.10065
 20
-1.405784
 30
0.0
 40
0.224
 50
0.0
  1
DOVETAIL DESIGNS
  0
TEXT
  8
TEXT
 10
2.276036
 20
-1.551751
 30
0.0
 40
0.099
 50
0.0
  1
& MILLWORK INC.
  0
TEXT
  8
TEXT
 10
1.092458
 20
-1.640461
 30
0.0
 40
0.07
 50
0.0
  1
Established 1979
  0
TEXT
  8
TEXT
 10
0.1
 20
-1.8
 30
0.0
 40
0.1
 50
0.0
  1
Phone: (406) 248-5010    Website: www.dovetailmt.com
  0
TEXT
  8
TEXT
 10
0.0
 20
-0.25
 30
0.0
 40
0.15625
 50
0.0
  1
PB106
  0
TEXT
  8
TEXT
 10
0.0
 20
-0.5
 30
0.0
 40
0.1
 50
0.0
  1
5/8"min
  0
TEXT
  8
TEXT
 10
0.0
 20
-0.65
 30
0.0
 40
0.1
 50
0.0
  1
x 8-7/8"
  0
TEXT
  8
TEXT
 10
0.0
 20
-0.8
 30
0.0
 40
0.1
 50
0.0
  1
8-5/8"face
  0
ENDSEC
  0
EOF
