  0
SECTION
  2
ENTITIES
  0
ARC
  8
APS_GEOMETRY
 10
0.594967
 20
4.811952
 40
0.125
 50
270.0
 51
90.0
  0
LINE
  8
APS_GEOMETRY
 10
0.594967
 11
0.594967
 20
4.936952
 21
4.999955
  0
LINE
  8
APS_GEOMETRY
 10
0.594967
 11
0.484392
 20
4.999955
 21
4.999955
  0
LINE
  8
APS_GEOMETRY
 10
0.484392
 11
0.484392
 20
4.999955
 21
5.249955
  0
LINE
  8
APS_GEOMETRY
 10
0.484392
 11
0.265642
 20
5.249955
 21
5.249955
  0
LINE
  8
APS_GEOMETRY
 10
0.265642
 11
0.265642
 20
5.249955
 21
4.999955
  0
LINE
  8
APS_GEOMETRY
 10
0.265642
 11
0.0
 20
4.999955
 21
4.999955
  0
LINE
  8
APS_GEOMETRY
 10
0.0
 11
0.0
 20
4.999955
 21
3.799955
  0
LINE
  8
APS_GEOMETRY
 10
0.0
 11
0.124739
 20
3.799955
 21
3.799955
  0
LINE
  8
APS_GEOMETRY
 10
0.124739
 11
0.124739
 20
3.799955
 21
3.687455
  0
LINE
  8
APS_GEOMETRY
 10
0.124739
 11
-0.000223
 20
3.687455
 21
3.687455
  0
LINE
  8
APS_GEOMETRY
 10
-0.000223
 11
0.0
 20
3.687455
 21
2.799955
  0
LINE
  8
APS_GEOMETRY
 10
0.0
 11
0.124777
 20
2.799955
 21
2.799955
  0
LINE
  8
APS_GEOMETRY
 10
0.124777
 11
0.124777
 20
2.799955
 21
2.687455
  0
LINE
  8
APS_GEOMETRY
 10
0.124777
 11
0.0
 20
2.687455
 21
2.687455
  0
LINE
  8
APS_GEOMETRY
 10
0.0
 11
0.0
 20
2.687455
 21
1.799955
  0
LINE
  8
APS_GEOMETRY
 10
0.0
 11
0.124814
 20
1.799955
 21
1.799955
  0
LINE
  8
APS_GEOMETRY
 10
0.124814
 11
0.124814
 20
1.799955
 21
1.687455
  0
LINE
  8
APS_GEOMETRY
 10
0.124814
 11
0.0
 20
1.687455
 21
1.687455
  0
LINE
  8
APS_GEOMETRY
 10
0.0
 11
0.0
 20
1.687455
 21
0.799955
  0
LINE
  8
APS_GEOMETRY
 10
0.0
 11
0.124851
 20
0.799955
 21
0.799955
  0
LINE
  8
APS_GEOMETRY
 10
0.124851
 11
0.124851
 20
0.799955
 21
0.687455
  0
LINE
  8
APS_GEOMETRY
 10
0.124851
 11
0.0
 20
0.687455
 21
0.687455
  0
LINE
  8
APS_GEOMETRY
 10
0.0
 11
0.0
 20
0.687455
 21
0.0
  0
LINE
  8
APS_GEOMETRY
 10
0.0
 11
0.25
 20
0.0
 21
0.0
  0
LINE
  8
APS_GEOMETRY
 10
0.25
 11
0.25
 20
0.0
 21
0.3125
  0
LINE
  8
APS_GEOMETRY
 10
0.25
 11
0.5
 20
0.3125
 21
0.3125
  0
LINE
  8
APS_GEOMETRY
 10
0.5
 11
0.5
 20
0.3125
 21
0.0
  0
LINE
  8
APS_GEOMETRY
 10
0.5
 11
0.75
 20
0.0
 21
0.0
  0
LINE
  8
APS_GEOMETRY
 10
0.75
 11
0.75
 20
0.0
 21
4.624452
  0
LINE
  8
APS_GEOMETRY
 10
0.75
 11
0.594967
 20
4.624452
 21
4.624452
  0
LINE
  8
APS_GEOMETRY
 10
0.594967
 11
0.594967
 20
4.624452
 21
4.686952
  0
LINE
  8
CONSTRUCTION
 10
0.152615
 11
0.10065
 20
-1.038482
 21
-1.166909
  0
LINE
  8
CONSTRUCTION
 10
0.10065
 11
0.20458
 20
-1.166909
 21
-1.166909
  0
LINE
  8
CONSTRUCTION
 10
0.20458
 11
0.152615
 20
-1.166909
 21
-1.038482
  0
LINE
  8
CONSTRUCTION
 10
0.152615
 11
0.559547
 20
-1.038482
 21
-1.03848
  0
LINE
  8
CONSTRUCTION
 10
0.559547
 11
0.507582
 20
-1.03848
 21
-1.166908
  0
LINE
  8
CONSTRUCTION
 10
0.507582
 11
0.611512
 20
-1.166908
 21
-1.166908
  0
LINE
  8
CONSTRUCTION
 10
0.611512
 11
0.559547
 20
-1.166908
 21
-1.03848
  0
LINE
  8
CONSTRUCTION
 10
0.559547
 11
0.966478
 20
-1.03848
 21
-1.03848
  0
LINE
  8
CONSTRUCTION
 10
0.966478
 11
0.914513
 20
-1.03848
 21
-1.166908
  0
LINE
  8
CONSTRUCTION
 10
0.914513
 11
1.018442
 20
-1.166908
 21
-1.166908
  0
LINE
  8
CONSTRUCTION
 10
1.018442
 11
0.966478
 20
-1.166908
 21
-1.03848
  0
LINE
  8
CONSTRUCTION
 10
0.966478
 11
1.373408
 20
-1.03848
 21
-1.03848
  0
LINE
  8
CONSTRUCTION
 10
1.373408
 11
1.321443
 20
-1.03848
 21
-1.166908
  0
LINE
  8
CONSTRUCTION
 10
1.321443
 11
1.425373
 20
-1.166908
 21
-1.166908
  0
LINE
  8
CONSTRUCTION
 10
1.425373
 11
1.373408
 20
-1.166908
 21
-1.03848
  0
LINE
  8
CONSTRUCTION
 10
1.373408
 11
1.780281
 20
-1.03848
 21
-1.038482
  0
LINE
  8
CONSTRUCTION
 10
1.780281
 11
1.728316
 20
-1.038482
 21
-1.166909
  0
LINE
  8
CONSTRUCTION
 10
1.728316
 11
1.832246
 20
-1.166909
 21
-1.166909
  0
LINE
  8
CONSTRUCTION
 10
1.832246
 11
1.780281
 20
-1.166909
 21
-1.038482
  0
LINE
  8
CONSTRUCTION
 10
0.0
 11
4.0
 20
-1.561751
 21
-1.561751
  0
TEXT
  8
TEXT
 10
0.10065
 20
-1.405784
 30
0.0
 40
0.224
 50
0.0
  1
DOVETAIL DESIGNS
  0
TEXT
  8
TEXT
 10
2.276036
 20
-1.551751
 30
0.0
 40
0.099
 50
0.0
  1
& MILLWORK INC.
  0
TEXT
  8
TEXT
 10
1.092458
 20
-1.640461
 30
0.0
 40
0.07
 50
0.0
  1
Established 1979
  0
TEXT
  8
TEXT
 10
0.1
 20
-1.8
 30
0.0
 40
0.1
 50
0.0
  1
Phone: (406) 248-5010    Website: www.dovetailmt.com
  0
TEXT
  8
TEXT
 10
0.0
 20
-0.8
 30
0.0
 40
0.1
 50
0.0
  1
5"face
  0
TEXT
  8
TEXT
 10
0.0
 20
-0.65
 30
0.0
 40
0.1
 50
0.0
  1
x 5-1/4"
  0
TEXT
  8
TEXT
 10
0.0
 20
-0.5
 30
0.0
 40
0.1
 50
0.0
  1
5/8"min
  0
TEXT
  8
TEXT
 10
0.0
 20
-0.25
 30
0.0
 40
0.15625
 50
0.0
  1
PB105
  0
ENDSEC
  0
EOF
