  0
SECTION
  2
ENTITIES
  0
LINE
  8
APS_GEOMETRY
 10
0.5
 11
35.5
 20
55.0
 21
55.0
  0
LINE
  8
APS_GEOMETRY
 10
35.5
 11
35.5
 20
55.0
 21
55.25
  0
LINE
  8
APS_GEOMETRY
 10
35.5
 11
0.5
 20
55.25
 21
55.25
  0
LINE
  8
APS_GEOMETRY
 10
0.5
 11
0.5
 20
55.25
 21
55.0
  0
LINE
  8
APS_GEOMETRY
 10
0.0625
 11
0.0625
 20
42.75
 21
42.0
  0
LINE
  8
APS_GEOMETRY
 10
0.0625
 11
17.9375
 20
42.0
 21
42.0
  0
LINE
  8
APS_GEOMETRY
 10
17.9375
 11
17.9375
 20
42.0
 21
42.75
  0
LINE
  8
APS_GEOMETRY
 10
18.0625
 11
18.0625
 20
42.75
 21
42.0
  0
LINE
  8
APS_GEOMETRY
 10
18.0625
 11
35.9375
 20
42.0
 21
42.0
  0
LINE
  8
APS_GEOMETRY
 10
35.9375
 11
35.9375
 20
42.0
 21
42.75
  0
LINE
  8
APS_GEOMETRY
 10
-0.75
 11
36.75
 20
42.75
 21
42.75
  0
LINE
  8
APS_GEOMETRY
 10
36.75
 11
36.75
 20
42.75
 21
43.5
  0
LINE
  8
APS_GEOMETRY
 10
36.75
 11
-0.75
 20
43.5
 21
43.5
  0
LINE
  8
APS_GEOMETRY
 10
-0.75
 11
-0.75
 20
43.5
 21
42.75
  0
LINE
  8
APS_GEOMETRY
 10
0.0
 11
0.0
 20
43.5
 21
56.0
  0
LINE
  8
APS_GEOMETRY
 10
0.0
 11
36.0
 20
56.0
 21
56.0
  0
LINE
  8
APS_GEOMETRY
 10
36.0
 11
36.0
 20
56.0
 21
43.5
  0
LINE
  8
APS_GEOMETRY
 10
0.75
 11
0.75
 20
42.75
 21
55.0
  0
LINE
  8
APS_GEOMETRY
 10
0.75
 11
0.75
 20
55.25
 21
56.0
  0
LINE
  8
APS_GEOMETRY
 10
35.25
 11
35.25
 20
42.75
 21
55.0
  0
LINE
  8
APS_GEOMETRY
 10
35.25
 11
35.25
 20
55.25
 21
56.0
  0
LINE
  8
APS_GEOMETRY
 10
36.75
 11
36.75
 20
43.5
 21
56.0
  0
LINE
  8
APS_GEOMETRY
 10
36.75
 11
36.0
 20
56.0
 21
56.0
  0
LINE
  8
APS_GEOMETRY
 10
15.8125
 11
15.8125
 20
42.0
 21
40.875
  0
ARC
  8
APS_GEOMETRY
 10
15.9375
 20
40.875
 40
0.125
 50
180.0
 51
0.0
  0
LINE
  8
APS_GEOMETRY
 10
16.0625
 11
16.0625
 20
40.875
 21
42.0
  0
LINE
  8
APS_GEOMETRY
 10
19.9375
 11
19.9375
 20
42.0
 21
40.875
  0
ARC
  8
APS_GEOMETRY
 10
20.0625
 20
40.875
 40
0.125
 50
180.0
 51
0.0
  0
LINE
  8
APS_GEOMETRY
 10
20.1875
 11
20.1875
 20
40.875
 21
42.0
  0
LINE
  8
APS_GEOMETRY
 10
-0.75
 11
36.75
 20
0.0
 21
0.0
  0
LINE
  8
APS_GEOMETRY
 10
36.75
 11
36.75
 20
0.0
 21
30.0
  0
LINE
  8
APS_GEOMETRY
 10
36.75
 11
-0.75
 20
30.0
 21
30.0
  0
LINE
  8
APS_GEOMETRY
 10
-0.75
 11
-0.75
 20
30.0
 21
0.0
  0
LINE
  8
APS_GEOMETRY
 10
0.0625
 11
17.9375
 20
0.8125
 21
0.8125
  0
LINE
  8
APS_GEOMETRY
 10
17.9375
 11
17.9375
 20
0.8125
 21
29.1875
  0
LINE
  8
APS_GEOMETRY
 10
17.9375
 11
0.0625
 20
29.1875
 21
29.1875
  0
LINE
  8
APS_GEOMETRY
 10
0.0625
 11
0.0625
 20
29.1875
 21
0.8125
  0
LINE
  8
APS_GEOMETRY
 10
18.0625
 11
35.9375
 20
0.8125
 21
0.8125
  0
LINE
  8
APS_GEOMETRY
 10
35.9375
 11
35.9375
 20
0.8125
 21
29.1875
  0
LINE
  8
APS_GEOMETRY
 10
35.9375
 11
18.0625
 20
29.1875
 21
29.1875
  0
LINE
  8
APS_GEOMETRY
 10
18.0625
 11
18.0625
 20
29.1875
 21
0.8125
  0
ARC
  8
APS_GEOMETRY
 10
15.9375
 20
6.8125
 40
0.125
 50
0.0
 51
180.0
  0
LINE
  8
APS_GEOMETRY
 10
15.8125
 11
15.8125
 20
6.8125
 21
2.8125
  0
ARC
  8
APS_GEOMETRY
 10
15.9375
 20
2.8125
 40
0.125
 50
180.0
 51
0.0
  0
LINE
  8
APS_GEOMETRY
 10
16.0625
 11
16.0625
 20
2.8125
 21
6.8125
  0
ARC
  8
APS_GEOMETRY
 10
20.0625
 20
6.8125
 40
0.125
 50
0.0
 51
180.0
  0
LINE
  8
APS_GEOMETRY
 10
19.9375
 11
19.9375
 20
6.8125
 21
2.8125
  0
ARC
  8
APS_GEOMETRY
 10
20.0625
 20
2.8125
 40
0.125
 50
180.0
 51
0.0
  0
LINE
  8
APS_GEOMETRY
 10
20.1875
 11
20.1875
 20
2.8125
 21
6.8125
  0
LINE
  8
APS_GEOMETRY
 10
49.5
 11
62.0
 20
0.75
 21
0.75
  0
LINE
  8
APS_GEOMETRY
 10
62.0
 11
62.0
 20
0.75
 21
30.0
  0
LINE
  8
APS_GEOMETRY
 10
62.0
 11
48.75
 20
30.0
 21
30.0
  0
LINE
  8
APS_GEOMETRY
 10
48.75
 11
48.75
 20
30.0
 21
0.0
  0
LINE
  8
APS_GEOMETRY
 10
48.75
 11
49.5
 20
0.0
 21
0.0
  0
LINE
  8
APS_GEOMETRY
 10
49.5
 11
49.5
 20
0.0
 21
30.0
  0
LINE
  8
APS_GEOMETRY
 10
61.0
 11
61.0
 20
30.0
 21
1.25
  0
LINE
  8
APS_GEOMETRY
 10
61.0
 11
61.25
 20
1.25
 21
1.25
  0
LINE
  8
APS_GEOMETRY
 10
61.25
 11
61.25
 20
1.25
 21
30.0
  0
LINE
  8
APS_GEOMETRY
 10
48.75
 11
48.0
 20
0.8125
 21
0.8125
  0
LINE
  8
APS_GEOMETRY
 10
48.0
 11
48.0
 20
0.8125
 21
29.1875
  0
LINE
  8
APS_GEOMETRY
 10
48.0
 11
48.75
 20
29.1875
 21
29.1875
  0
LINE
  8
APS_GEOMETRY
 10
61.0
 11
49.625
 20
15.059055
 21
15.059055
  0
LINE
  8
APS_GEOMETRY
 10
49.625
 11
49.625
 20
15.059055
 21
15.809055
  0
LINE
  8
APS_GEOMETRY
 10
49.625
 11
61.0
 20
15.809055
 21
15.809055
  0
LINE
  8
APS_GEOMETRY
 10
48.75
 11
61.0
 20
1.5
 21
1.5
  0
LINE
  8
APS_GEOMETRY
 10
49.5
 11
61.0
 20
29.25
 21
29.25
  0
LINE
  8
APS_GEOMETRY
 10
48.75
 11
49.5
 20
28.5
 21
28.5
  0
LINE
  8
APS_GEOMETRY
 10
61.25
 11
62.0
 20
1.5
 21
1.5
  0
LINE
  8
APS_GEOMETRY
 10
61.25
 11
62.0
 20
5.5
 21
5.5
  0
LINE
  8
APS_GEOMETRY
 10
61.25
 11
62.0
 20
26.0
 21
26.0
  0
CIRCLE
  8
APS_GEOMETRY
 10
59.75
 20
7.5
 40
0.098425
  0
CIRCLE
  8
APS_GEOMETRY
 10
59.75
 20
8.759843
 40
0.098425
  0
CIRCLE
  8
APS_GEOMETRY
 10
59.75
 20
10.019685
 40
0.098425
  0
CIRCLE
  8
APS_GEOMETRY
 10
59.75
 20
11.279528
 40
0.098425
  0
CIRCLE
  8
APS_GEOMETRY
 10
59.75
 20
12.53937
 40
0.098425
  0
CIRCLE
  8
APS_GEOMETRY
 10
59.75
 20
13.799213
 40
0.098425
  0
CIRCLE
  8
APS_GEOMETRY
 10
59.75
 20
15.059055
 40
0.098425
  0
CIRCLE
  8
APS_GEOMETRY
 10
59.75
 20
16.318898
 40
0.098425
  0
CIRCLE
  8
APS_GEOMETRY
 10
59.75
 20
17.57874
 40
0.098425
  0
CIRCLE
  8
APS_GEOMETRY
 10
59.75
 20
18.838583
 40
0.098425
  0
CIRCLE
  8
APS_GEOMETRY
 10
59.75
 20
20.098425
 40
0.098425
  0
CIRCLE
  8
APS_GEOMETRY
 10
59.75
 20
21.358268
 40
0.098425
  0
CIRCLE
  8
APS_GEOMETRY
 10
50.75
 20
7.5
 40
0.098425
  0
CIRCLE
  8
APS_GEOMETRY
 10
50.75
 20
8.759843
 40
0.098425
  0
CIRCLE
  8
APS_GEOMETRY
 10
50.75
 20
10.019685
 40
0.098425
  0
CIRCLE
  8
APS_GEOMETRY
 10
50.75
 20
11.279528
 40
0.098425
  0
CIRCLE
  8
APS_GEOMETRY
 10
50.75
 20
12.53937
 40
0.098425
  0
CIRCLE
  8
APS_GEOMETRY
 10
50.75
 20
13.799213
 40
0.098425
  0
CIRCLE
  8
APS_GEOMETRY
 10
50.75
 20
15.059055
 40
0.098425
  0
CIRCLE
  8
APS_GEOMETRY
 10
50.75
 20
16.318898
 40
0.098425
  0
CIRCLE
  8
APS_GEOMETRY
 10
50.75
 20
17.57874
 40
0.098425
  0
CIRCLE
  8
APS_GEOMETRY
 10
50.75
 20
18.838583
 40
0.098425
  0
CIRCLE
  8
APS_GEOMETRY
 10
50.75
 20
20.098425
 40
0.098425
  0
CIRCLE
  8
APS_GEOMETRY
 10
50.75
 20
21.358268
 40
0.098425
  0
LINE
  8
APS_GEOMETRY
 10
48.0
 11
47.25
 20
2.9375
 21
2.9375
  0
ARC
  8
APS_GEOMETRY
 10
47.25
 20
3.1875
 40
0.25
 50
180.0
 51
270.0
  0
LINE
  8
APS_GEOMETRY
 10
47.0
 11
47.0
 20
3.1875
 21
6.4375
  0
ARC
  8
APS_GEOMETRY
 10
47.25
 20
6.4375
 40
0.25
 50
90.0
 51
180.0
  0
LINE
  8
APS_GEOMETRY
 10
47.25
 11
48.0
 20
6.6875
 21
6.6875
  0
LINE
  8
APS_GEOMETRY
 10
48.0
 11
47.25
 20
6.9375
 21
6.9375
  0
ARC
  8
APS_GEOMETRY
 10
47.25
 20
6.4375
 40
0.5
 50
90.0
 51
180.0
  0
LINE
  8
APS_GEOMETRY
 10
46.75
 11
46.75
 20
6.4375
 21
3.1875
  0
ARC
  8
APS_GEOMETRY
 10
47.25
 20
3.1875
 40
0.5
 50
180.0
 51
270.0
  0
LINE
  8
APS_GEOMETRY
 10
47.25
 11
48.0
 20
2.6875
 21
2.6875
  0
LINE
  8
DIMENSIONS
 10
0.0
 11
0.0
 20
56.5
 21
60.5
  0
LINE
  8
DIMENSIONS
 10
36.0
 11
36.0
 20
56.5
 21
60.5
  0
LINE
  8
DIMENSIONS
 10
0.0
 11
6.0
 20
60.0
 21
60.0
  0
LINE
  8
DIMENSIONS
 10
30.0
 11
36.0
 20
60.0
 21
60.0
  0
LINE
  8
DIMENSIONS
 10
1.0
 11
0.0
 20
59.8333
 21
60.0
  0
LINE
  8
DIMENSIONS
 10
0.0
 11
1.0
 20
60.0
 21
60.1667
  0
LINE
  8
DIMENSIONS
 10
1.0
 11
1.0
 20
60.1667
 21
59.8333
  0
LINE
  8
DIMENSIONS
 10
35.0
 11
36.0
 20
60.1667
 21
60.0
  0
LINE
  8
DIMENSIONS
 10
36.0
 11
35.0
 20
60.0
 21
59.8333
  0
LINE
  8
DIMENSIONS
 10
35.0
 11
35.0
 20
59.8333
 21
60.1667
  0
LINE
  8
CONSTRUCTION
 10
13.831379
 11
13.2078
 20
-12.46178
 21
-14.002913
  0
LINE
  8
CONSTRUCTION
 10
13.2078
 11
14.454958
 20
-14.002913
 21
-14.002913
  0
LINE
  8
CONSTRUCTION
 10
14.454958
 11
13.831379
 20
-14.002913
 21
-12.46178
  0
LINE
  8
CONSTRUCTION
 10
13.831379
 11
18.714561
 20
-12.46178
 21
-12.461764
  0
LINE
  8
CONSTRUCTION
 10
18.714561
 11
18.090982
 20
-12.461764
 21
-14.002897
  0
LINE
  8
CONSTRUCTION
 10
18.090982
 11
19.33814
 20
-14.002897
 21
-14.002897
  0
LINE
  8
CONSTRUCTION
 10
19.33814
 11
18.714561
 20
-14.002897
 21
-12.461764
  0
LINE
  8
CONSTRUCTION
 10
18.714561
 11
23.597731
 20
-12.461764
 21
-12.461764
  0
LINE
  8
CONSTRUCTION
 10
23.597731
 11
22.974152
 20
-12.461764
 21
-14.002897
  0
LINE
  8
CONSTRUCTION
 10
22.974152
 11
24.22131
 20
-14.002897
 21
-14.002897
  0
LINE
  8
CONSTRUCTION
 10
24.22131
 11
23.597731
 20
-14.002897
 21
-12.461764
  0
LINE
  8
CONSTRUCTION
 10
23.597731
 11
28.480901
 20
-12.461764
 21
-12.461764
  0
LINE
  8
CONSTRUCTION
 10
28.480901
 11
27.857322
 20
-12.461764
 21
-14.002897
  0
LINE
  8
CONSTRUCTION
 10
27.857322
 11
29.10448
 20
-14.002897
 21
-14.002897
  0
LINE
  8
CONSTRUCTION
 10
29.10448
 11
28.480901
 20
-14.002897
 21
-12.461764
  0
LINE
  8
CONSTRUCTION
 10
28.480901
 11
33.363373
 20
-12.461764
 21
-12.46178
  0
LINE
  8
CONSTRUCTION
 10
33.363373
 11
32.739794
 20
-12.46178
 21
-14.002913
  0
LINE
  8
CONSTRUCTION
 10
32.739794
 11
33.986952
 20
-14.002913
 21
-14.002913
  0
LINE
  8
CONSTRUCTION
 10
33.986952
 11
33.363373
 20
-14.002913
 21
-12.46178
  0
LINE
  8
CONSTRUCTION
 10
12.0
 11
60.0
 20
-18.74101
 21
-18.74101
  0
TEXT
  8
TEXT
 10
18.0
 20
59.5
 30
0.0
 40
1.0
 50
0.0
  1
CABINETS EXCEEDING 36" WIDE
  0
TEXT
  8
TEXT
 10
18.0
 20
58.0
 30
0.0
 40
1.0
 50
0.0
  1
WILL NEED A PARTITION
  0
LINE
  8
TEXT
 10
-2.009492
 11
-2.676159
 20
54.741491
 21
54.741491
  0
ARC
  8
TEXT
 10
-2.676159
 20
54.408157
 40
0.333333
 50
90.0
 51
270.0
  0
LINE
  8
TEXT
 10
-2.676159
 11
-2.009492
 20
54.074824
 21
54.074824
  0
LINE
  8
TEXT
 10
-3.0
 11
-2.0
 20
53.87325
 21
53.87325
  0
LINE
  8
TEXT
 10
-2.0
 11
-2.0
 20
53.87325
 21
53.817695
  0
LINE
  8
TEXT
 10
-2.0
 11
-3.0
 20
53.817695
 21
53.262139
  0
LINE
  8
TEXT
 10
-3.0
 11
-3.0
 20
53.262139
 21
53.206584
  0
LINE
  8
TEXT
 10
-3.0
 11
-2.0
 20
53.206584
 21
53.206584
  0
LINE
  8
TEXT
 10
-2.5
 11
-2.5
 20
52.995473
 21
52.562139
  0
LINE
  8
TEXT
 10
-2.0
 11
-2.0
 20
52.339917
 21
53.006584
  0
LINE
  8
TEXT
 10
-2.0
 11
-3.0
 20
53.006584
 21
53.006584
  0
LINE
  8
TEXT
 10
-2.0
 11
-3.0
 20
52.004224
 21
52.004224
  0
LINE
  8
TEXT
 10
-3.000239
 11
-3.0
 20
52.239883
 21
52.004224
  0
LINE
  8
TEXT
 10
-3.0
 11
-3.000239
 20
52.004224
 21
51.768565
  0
LINE
  8
TEXT
 10
-2.000239
 11
-2.0
 20
52.239883
 21
52.004224
  0
LINE
  8
TEXT
 10
-2.0
 11
-2.000239
 20
52.004224
 21
51.768565
  0
LINE
  8
TEXT
 10
-3.0
 11
-2.0
 20
51.568598
 21
51.568598
  0
LINE
  8
TEXT
 10
-2.0
 11
-2.0
 20
51.568598
 21
51.513043
  0
LINE
  8
TEXT
 10
-2.0
 11
-3.0
 20
51.513043
 21
50.957487
  0
LINE
  8
TEXT
 10
-3.0
 11
-3.0
 20
50.957487
 21
50.901932
  0
LINE
  8
TEXT
 10
-3.0
 11
-2.0
 20
50.901932
 21
50.901932
  0
LINE
  8
TEXT
 10
-2.0
 11
-3.0
 20
50.466239
 21
50.466239
  0
LINE
  8
TEXT
 10
-3.000239
 11
-3.0
 20
50.701898
 21
50.466239
  0
LINE
  8
TEXT
 10
-3.0
 11
-3.000239
 20
50.466239
 21
50.230579
  0
LINE
  8
TEXT
 10
-2.000239
 11
-2.0
 20
50.701898
 21
50.466239
  0
LINE
  8
TEXT
 10
-2.0
 11
-2.000239
 20
50.466239
 21
50.230579
  0
ARC
  8
TEXT
 10
-2.393348
 20
49.702895
 40
0.411044
 50
312.9037
 51
32.5462
  0
ARC
  8
TEXT
 10
-2.222825
 20
49.808408
 40
0.210556
 50
33.306702
 51
163.425563
  0
LINE
  8
TEXT
 10
-2.424632
 11
-2.535748
 20
49.868471
 21
49.53514
  0
ARC
  8
TEXT
 10
-2.751049
 20
49.603008
 40
0.225744
 50
209.837943
 51
342.503854
  0
ARC
  8
TEXT
 10
-2.571213
 20
49.707346
 40
0.433656
 50
150.02251
 51
209.973977
  0
ARC
  8
TEXT
 10
-2.739354
 20
49.805455
 40
0.238989
 50
119.759272
 51
150.255342
  0
LINE
  8
TEXT
 10
-2.466667
 11
-2.466667
 20
49.177802
 21
48.477801
  0
LINE
  8
TEXT
 10
-2.0
 11
-3.0
 20
48.46669
 21
48.46669
  0
LINE
  8
TEXT
 10
-2.0
 11
-3.0
 20
49.188913
 21
49.188913
  0
LINE
  8
TEXT
 10
-2.0
 11
-2.0
 20
47.600024
 21
48.26669
  0
LINE
  8
TEXT
 10
-2.0
 11
-3.0
 20
48.26669
 21
48.26669
  0
LINE
  8
TEXT
 10
-3.0
 11
-3.0
 20
48.26669
 21
47.600024
  0
LINE
  8
TEXT
 10
-2.466667
 11
-2.466667
 20
48.255579
 21
47.822246
  0
ARC
  8
TEXT
 10
-2.326311
 20
47.11019
 40
0.326311
 50
308.7145
 51
0.1655
  0
LINE
  8
TEXT
 10
-2.000001
 11
-2.0
 20
47.111133
 21
47.400024
  0
LINE
  8
TEXT
 10
-2.0
 11
-3.0
 20
47.400024
 21
47.400024
  0
LINE
  8
TEXT
 10
-3.0
 11
-3.0
 20
47.400024
 21
47.111135
  0
ARC
  8
TEXT
 10
-2.67369
 20
47.110191
 40
0.326311
 50
179.83436
 51
231.285807
  0
ARC
  8
TEXT
 10
-2.5
 20
47.321731
 40
0.600011
 50
230.978158
 51
309.021842
  0
LINE
  8
TEXT
 10
-2.0
 11
-2.0
 20
45.005053
 21
45.67172
  0
LINE
  8
TEXT
 10
-2.0
 11
-3.0
 20
45.67172
 21
45.67172
  0
LINE
  8
TEXT
 10
-3.0
 11
-3.0
 20
45.67172
 21
45.005053
  0
LINE
  8
TEXT
 10
-2.466667
 11
-2.466667
 20
45.660609
 21
45.227275
  0
LINE
  8
TEXT
 10
-3.0
 11
-2.0
 20
44.805053
 21
44.805053
  0
LINE
  8
TEXT
 10
-2.0
 11
-2.0
 20
44.805053
 21
44.749498
  0
LINE
  8
TEXT
 10
-2.0
 11
-3.0
 20
44.749498
 21
44.193942
  0
LINE
  8
TEXT
 10
-3.0
 11
-3.0
 20
44.193942
 21
44.138387
  0
LINE
  8
TEXT
 10
-3.0
 11
-2.0
 20
44.138387
 21
44.138387
  0
ARC
  8
TEXT
 10
-2.326311
 20
43.648553
 40
0.326311
 50
308.7145
 51
0.1655
  0
LINE
  8
TEXT
 10
-2.000001
 11
-2.0
 20
43.649496
 21
43.938387
  0
LINE
  8
TEXT
 10
-2.0
 11
-3.0
 20
43.938387
 21
43.938387
  0
LINE
  8
TEXT
 10
-3.0
 11
-3.0
 20
43.938387
 21
43.649498
  0
ARC
  8
TEXT
 10
-2.67369
 20
43.648554
 40
0.326311
 50
179.83436
 51
231.285807
  0
ARC
  8
TEXT
 10
-2.5
 20
43.860094
 40
0.600011
 50
230.978158
 51
309.021842
  0
LINE
  8
TEXT
 10
38.5
 11
38.5
 20
44.137861
 21
44.571194
  0
LINE
  8
TEXT
 10
38.0
 11
38.0
 20
44.793416
 21
44.12675
  0
LINE
  8
TEXT
 10
38.0
 11
39.0
 20
44.12675
 21
44.12675
  0
LINE
  8
TEXT
 10
38.0
 11
39.0
 20
45.129109
 21
45.129109
  0
LINE
  8
TEXT
 10
39.000239
 11
39.0
 20
44.89345
 21
45.129109
  0
LINE
  8
TEXT
 10
39.0
 11
39.000239
 20
45.129109
 21
45.364768
  0
LINE
  8
TEXT
 10
38.000239
 11
38.0
 20
44.89345
 21
45.129109
  0
LINE
  8
TEXT
 10
38.0
 11
38.000239
 20
45.129109
 21
45.364768
  0
LINE
  8
TEXT
 10
39.0
 11
38.0
 20
45.564735
 21
45.564735
  0
LINE
  8
TEXT
 10
38.0
 11
38.0
 20
45.564735
 21
45.62029
  0
LINE
  8
TEXT
 10
38.0
 11
39.0
 20
45.62029
 21
46.175846
  0
LINE
  8
TEXT
 10
39.0
 11
39.0
 20
46.175846
 21
46.231402
  0
LINE
  8
TEXT
 10
39.0
 11
38.0
 20
46.231402
 21
46.231402
  0
LINE
  8
TEXT
 10
38.0
 11
39.0
 20
46.667095
 21
46.667095
  0
LINE
  8
TEXT
 10
39.000239
 11
39.0
 20
46.431435
 21
46.667095
  0
LINE
  8
TEXT
 10
39.0
 11
39.000239
 20
46.667095
 21
46.902754
  0
LINE
  8
TEXT
 10
38.000239
 11
38.0
 20
46.431435
 21
46.667095
  0
LINE
  8
TEXT
 10
38.0
 11
38.000239
 20
46.667095
 21
46.902754
  0
ARC
  8
TEXT
 10
38.393348
 20
47.430438
 40
0.411044
 50
132.9037
 51
212.5462
  0
ARC
  8
TEXT
 10
38.222825
 20
47.324925
 40
0.210556
 50
213.306702
 51
343.425563
  0
LINE
  8
TEXT
 10
38.424632
 11
38.535748
 20
47.264862
 21
47.598194
  0
ARC
  8
TEXT
 10
38.751049
 20
47.530326
 40
0.225744
 50
29.837943
 51
162.503854
  0
ARC
  8
TEXT
 10
38.571213
 20
47.425987
 40
0.433656
 50
330.02251
 51
29.973977
  0
ARC
  8
TEXT
 10
38.739354
 20
47.327878
 40
0.238989
 50
299.759272
 51
330.255342
  0
LINE
  8
TEXT
 10
38.466667
 11
38.466667
 20
47.955532
 21
48.655532
  0
LINE
  8
TEXT
 10
38.0
 11
39.0
 20
48.666643
 21
48.666643
  0
LINE
  8
TEXT
 10
38.0
 11
39.0
 20
47.944421
 21
47.944421
  0
LINE
  8
TEXT
 10
38.0
 11
38.0
 20
49.53331
 21
48.866643
  0
LINE
  8
TEXT
 10
38.0
 11
39.0
 20
48.866643
 21
48.866643
  0
LINE
  8
TEXT
 10
39.0
 11
39.0
 20
48.866643
 21
49.53331
  0
LINE
  8
TEXT
 10
38.466667
 11
38.466667
 20
48.877754
 21
49.311087
  0
ARC
  8
TEXT
 10
38.326311
 20
50.023143
 40
0.326311
 50
128.7145
 51
180.1655
  0
LINE
  8
TEXT
 10
38.000001
 11
38.0
 20
50.0222
 21
49.73331
  0
LINE
  8
TEXT
 10
38.0
 11
39.0
 20
49.73331
 21
49.73331
  0
LINE
  8
TEXT
 10
39.0
 11
39.0
 20
49.73331
 21
50.022199
  0
ARC
  8
TEXT
 10
38.67369
 20
50.023142
 40
0.326311
 50
359.83436
 51
51.285807
  0
ARC
  8
TEXT
 10
38.5
 20
49.811602
 40
0.600011
 50
50.978158
 51
129.021842
  0
LINE
  8
TEXT
 10
38.0
 11
38.0
 20
52.12828
 21
51.461613
  0
LINE
  8
TEXT
 10
38.0
 11
39.0
 20
51.461613
 21
51.461613
  0
LINE
  8
TEXT
 10
39.0
 11
39.0
 20
51.461613
 21
52.12828
  0
LINE
  8
TEXT
 10
38.466667
 11
38.466667
 20
51.472724
 21
51.906058
  0
LINE
  8
TEXT
 10
39.0
 11
38.0
 20
52.32828
 21
52.32828
  0
LINE
  8
TEXT
 10
38.0
 11
38.0
 20
52.32828
 21
52.383836
  0
LINE
  8
TEXT
 10
38.0
 11
39.0
 20
52.383836
 21
52.939391
  0
LINE
  8
TEXT
 10
39.0
 11
39.0
 20
52.939391
 21
52.994947
  0
LINE
  8
TEXT
 10
39.0
 11
38.0
 20
52.994947
 21
52.994947
  0
ARC
  8
TEXT
 10
38.326311
 20
53.48478
 40
0.326311
 50
128.7145
 51
180.1655
  0
LINE
  8
TEXT
 10
38.000001
 11
38.0
 20
53.483838
 21
53.194947
  0
LINE
  8
TEXT
 10
38.0
 11
39.0
 20
53.194947
 21
53.194947
  0
LINE
  8
TEXT
 10
39.0
 11
39.0
 20
53.194947
 21
53.483836
  0
ARC
  8
TEXT
 10
38.67369
 20
53.484779
 40
0.326311
 50
359.83436
 51
51.285807
  0
ARC
  8
TEXT
 10
38.5
 20
53.273239
 40
0.600011
 50
50.978158
 51
129.021842
  0
TEXT
  8
TEXT
 10
13.2078
 20
-16.869403
 30
0.0
 40
2.688
 50
0.0
  1
DOVETAIL DESIGNS
  0
TEXT
  8
TEXT
 10
39.312436
 20
-18.62101
 30
0.0
 40
1.188
 50
0.0
  1
& MILLWORK INC.
  0
TEXT
  8
TEXT
 10
25.109495
 20
-19.685533
 30
0.0
 40
0.84
 50
0.0
  1
Established 1979
  0
TEXT
  8
TEXT
 10
13.2
 20
-21.6
 30
0.0
 40
1.2
 50
0.0
  1
Phone: (406) 248-5010    Website: www.dovetailmt.com
  0
ENDSEC
  0
EOF
