  0
SECTION
  2
ENTITIES
  0
LINE
  8
APS_GEOMETRY
 10
0.5
 11
35.5
 20
71.0
 21
71.0
  0
LINE
  8
APS_GEOMETRY
 10
35.5
 11
35.5
 20
71.0
 21
71.25
  0
LINE
  8
APS_GEOMETRY
 10
35.5
 11
0.5
 20
71.25
 21
71.25
  0
LINE
  8
APS_GEOMETRY
 10
0.5
 11
0.5
 20
71.25
 21
71.0
  0
LINE
  8
APS_GEOMETRY
 10
1.3125
 11
1.3125
 20
53.5
 21
67.0
  0
LINE
  8
APS_GEOMETRY
 10
2.0625
 11
2.0625
 20
53.5
 21
67.0
  0
LINE
  8
APS_GEOMETRY
 10
15.9375
 11
15.9375
 20
53.5
 21
67.0
  0
LINE
  8
APS_GEOMETRY
 10
16.6875
 11
16.6875
 20
53.5
 21
67.0
  0
LINE
  8
APS_GEOMETRY
 10
17.25
 11
17.25
 20
53.5
 21
67.0
  0
LINE
  8
APS_GEOMETRY
 10
17.625
 11
17.625
 20
53.5
 21
67.0
  0
LINE
  8
APS_GEOMETRY
 10
18.375
 11
18.375
 20
53.5
 21
67.0
  0
LINE
  8
APS_GEOMETRY
 10
18.75
 11
18.75
 20
53.5
 21
67.0
  0
LINE
  8
APS_GEOMETRY
 10
19.3125
 11
19.3125
 20
53.5
 21
67.0
  0
LINE
  8
APS_GEOMETRY
 10
20.0625
 11
20.0625
 20
53.5
 21
67.0
  0
LINE
  8
APS_GEOMETRY
 10
33.9375
 11
33.9375
 20
53.5
 21
67.0
  0
LINE
  8
APS_GEOMETRY
 10
34.6875
 11
34.6875
 20
53.5
 21
67.0
  0
LINE
  8
APS_GEOMETRY
 10
0.75
 11
35.25
 20
53.5
 21
53.5
  0
LINE
  8
APS_GEOMETRY
 10
0.75
 11
35.25
 20
67.0
 21
67.0
  0
LINE
  8
APS_GEOMETRY
 10
0.0625
 11
0.0625
 20
48.75
 21
48.0
  0
LINE
  8
APS_GEOMETRY
 10
0.0625
 11
17.9375
 20
48.0
 21
48.0
  0
LINE
  8
APS_GEOMETRY
 10
17.9375
 11
17.9375
 20
48.0
 21
48.75
  0
LINE
  8
APS_GEOMETRY
 10
18.0625
 11
18.0625
 20
48.75
 21
48.0
  0
LINE
  8
APS_GEOMETRY
 10
18.0625
 11
35.9375
 20
48.0
 21
48.0
  0
LINE
  8
APS_GEOMETRY
 10
35.9375
 11
35.9375
 20
48.0
 21
48.75
  0
LINE
  8
APS_GEOMETRY
 10
-0.75
 11
36.75
 20
48.75
 21
48.75
  0
LINE
  8
APS_GEOMETRY
 10
36.75
 11
36.75
 20
48.75
 21
49.5
  0
LINE
  8
APS_GEOMETRY
 10
36.75
 11
-0.75
 20
49.5
 21
49.5
  0
LINE
  8
APS_GEOMETRY
 10
-0.75
 11
-0.75
 20
49.5
 21
48.75
  0
LINE
  8
APS_GEOMETRY
 10
0.0
 11
0.0
 20
49.5
 21
72.0
  0
LINE
  8
APS_GEOMETRY
 10
0.0
 11
36.0
 20
72.0
 21
72.0
  0
LINE
  8
APS_GEOMETRY
 10
36.0
 11
36.0
 20
72.0
 21
49.5
  0
LINE
  8
APS_GEOMETRY
 10
0.75
 11
0.75
 20
48.75
 21
71.0
  0
LINE
  8
APS_GEOMETRY
 10
0.75
 11
0.75
 20
71.25
 21
72.0
  0
LINE
  8
APS_GEOMETRY
 10
35.25
 11
35.25
 20
48.75
 21
71.0
  0
LINE
  8
APS_GEOMETRY
 10
35.25
 11
35.25
 20
71.25
 21
72.0
  0
LINE
  8
APS_GEOMETRY
 10
36.75
 11
36.75
 20
49.5
 21
72.0
  0
LINE
  8
APS_GEOMETRY
 10
36.75
 11
36.0
 20
72.0
 21
72.0
  0
LINE
  8
APS_GEOMETRY
 10
17.25
 11
17.25
 20
48.75
 21
49.5
  0
LINE
  8
APS_GEOMETRY
 10
18.75
 11
18.75
 20
48.75
 21
49.5
  0
LINE
  8
APS_GEOMETRY
 10
10.875
 11
10.875
 20
48.0
 21
47.25
  0
ARC
  8
APS_GEOMETRY
 10
10.625
 20
47.25
 40
0.25
 50
270.0
 51
360.0
  0
LINE
  8
APS_GEOMETRY
 10
10.625
 11
7.375
 20
47.0
 21
47.0
  0
ARC
  8
APS_GEOMETRY
 10
7.375
 20
47.25
 40
0.25
 50
180.0
 51
270.0
  0
LINE
  8
APS_GEOMETRY
 10
7.125
 11
7.125
 20
47.25
 21
48.0
  0
LINE
  8
APS_GEOMETRY
 10
6.875
 11
6.875
 20
48.0
 21
47.25
  0
ARC
  8
APS_GEOMETRY
 10
7.375
 20
47.25
 40
0.5
 50
180.0
 51
270.0
  0
LINE
  8
APS_GEOMETRY
 10
7.375
 11
10.625
 20
46.75
 21
46.75
  0
ARC
  8
APS_GEOMETRY
 10
10.625
 20
47.25
 40
0.5
 50
270.0
 51
0.0
  0
LINE
  8
APS_GEOMETRY
 10
11.125
 11
11.125
 20
47.25
 21
48.0
  0
LINE
  8
APS_GEOMETRY
 10
28.875
 11
28.875
 20
48.0
 21
47.25
  0
ARC
  8
APS_GEOMETRY
 10
28.625
 20
47.25
 40
0.25
 50
270.0
 51
360.0
  0
LINE
  8
APS_GEOMETRY
 10
28.625
 11
25.375
 20
47.0
 21
47.0
  0
ARC
  8
APS_GEOMETRY
 10
25.375
 20
47.25
 40
0.25
 50
180.0
 51
270.0
  0
LINE
  8
APS_GEOMETRY
 10
25.125
 11
25.125
 20
47.25
 21
48.0
  0
LINE
  8
APS_GEOMETRY
 10
24.875
 11
24.875
 20
48.0
 21
47.25
  0
ARC
  8
APS_GEOMETRY
 10
25.375
 20
47.25
 40
0.5
 50
180.0
 51
270.0
  0
LINE
  8
APS_GEOMETRY
 10
25.375
 11
28.625
 20
46.75
 21
46.75
  0
ARC
  8
APS_GEOMETRY
 10
28.625
 20
47.25
 40
0.5
 50
270.0
 51
0.0
  0
LINE
  8
APS_GEOMETRY
 10
29.125
 11
29.125
 20
47.25
 21
48.0
  0
LINE
  8
APS_GEOMETRY
 10
15.8125
 11
15.8125
 20
48.0
 21
46.875
  0
ARC
  8
APS_GEOMETRY
 10
15.9375
 20
46.875
 40
0.125
 50
180.0
 51
0.0
  0
LINE
  8
APS_GEOMETRY
 10
16.0625
 11
16.0625
 20
46.875
 21
48.0
  0
LINE
  8
APS_GEOMETRY
 10
19.9375
 11
19.9375
 20
48.0
 21
46.875
  0
ARC
  8
APS_GEOMETRY
 10
20.0625
 20
46.875
 40
0.125
 50
180.0
 51
0.0
  0
LINE
  8
APS_GEOMETRY
 10
20.1875
 11
20.1875
 20
46.875
 21
48.0
  0
LINE
  8
APS_GEOMETRY
 10
-0.75
 11
36.75
 20
4.0
 21
4.0
  0
LINE
  8
APS_GEOMETRY
 10
36.75
 11
36.75
 20
4.0
 21
34.5
  0
LINE
  8
APS_GEOMETRY
 10
36.75
 11
-0.75
 20
34.5
 21
34.5
  0
LINE
  8
APS_GEOMETRY
 10
-0.75
 11
-0.75
 20
34.5
 21
4.0
  0
LINE
  8
APS_GEOMETRY
 10
0.0625
 11
17.9375
 20
4.8125
 21
4.8125
  0
LINE
  8
APS_GEOMETRY
 10
17.9375
 11
17.9375
 20
4.8125
 21
27.5625
  0
LINE
  8
APS_GEOMETRY
 10
17.9375
 11
0.0625
 20
27.5625
 21
27.5625
  0
LINE
  8
APS_GEOMETRY
 10
0.0625
 11
0.0625
 20
27.5625
 21
4.8125
  0
LINE
  8
APS_GEOMETRY
 10
18.0625
 11
35.9375
 20
4.8125
 21
4.8125
  0
LINE
  8
APS_GEOMETRY
 10
35.9375
 11
35.9375
 20
4.8125
 21
27.5625
  0
LINE
  8
APS_GEOMETRY
 10
35.9375
 11
18.0625
 20
27.5625
 21
27.5625
  0
LINE
  8
APS_GEOMETRY
 10
18.0625
 11
18.0625
 20
27.5625
 21
4.8125
  0
LINE
  8
APS_GEOMETRY
 10
0.0625
 11
17.9375
 20
27.6875
 21
27.6875
  0
LINE
  8
APS_GEOMETRY
 10
17.9375
 11
17.9375
 20
27.6875
 21
33.6875
  0
LINE
  8
APS_GEOMETRY
 10
17.9375
 11
0.0625
 20
33.6875
 21
33.6875
  0
LINE
  8
APS_GEOMETRY
 10
0.0625
 11
0.0625
 20
33.6875
 21
27.6875
  0
LINE
  8
APS_GEOMETRY
 10
18.0625
 11
35.9375
 20
27.6875
 21
27.6875
  0
LINE
  8
APS_GEOMETRY
 10
35.9375
 11
35.9375
 20
27.6875
 21
33.6875
  0
LINE
  8
APS_GEOMETRY
 10
35.9375
 11
18.0625
 20
33.6875
 21
33.6875
  0
LINE
  8
APS_GEOMETRY
 10
18.0625
 11
18.0625
 20
33.6875
 21
27.6875
  0
LINE
  8
APS_GEOMETRY
 10
1.0
 11
1.0
 20
4.0
 21
0.0
  0
LINE
  8
APS_GEOMETRY
 10
1.0
 11
35.0
 20
0.0
 21
0.0
  0
LINE
  8
APS_GEOMETRY
 10
35.0
 11
35.0
 20
0.0
 21
4.0
  0
ARC
  8
APS_GEOMETRY
 10
7.0
 20
30.6875
 40
0.125
 50
90.0
 51
270.0
  0
LINE
  8
APS_GEOMETRY
 10
7.0
 11
11.0
 20
30.5625
 21
30.5625
  0
ARC
  8
APS_GEOMETRY
 10
11.0
 20
30.6875
 40
0.125
 50
270.0
 51
90.0
  0
LINE
  8
APS_GEOMETRY
 10
11.0
 11
7.0
 20
30.8125
 21
30.8125
  0
ARC
  8
APS_GEOMETRY
 10
25.0
 20
30.6875
 40
0.125
 50
90.0
 51
270.0
  0
LINE
  8
APS_GEOMETRY
 10
25.0
 11
29.0
 20
30.5625
 21
30.5625
  0
ARC
  8
APS_GEOMETRY
 10
29.0
 20
30.6875
 40
0.125
 50
270.0
 51
90.0
  0
LINE
  8
APS_GEOMETRY
 10
29.0
 11
25.0
 20
30.8125
 21
30.8125
  0
ARC
  8
APS_GEOMETRY
 10
15.9375
 20
25.5625
 40
0.125
 50
0.0
 51
180.0
  0
LINE
  8
APS_GEOMETRY
 10
15.8125
 11
15.8125
 20
25.5625
 21
21.5625
  0
ARC
  8
APS_GEOMETRY
 10
15.9375
 20
21.5625
 40
0.125
 50
180.0
 51
0.0
  0
LINE
  8
APS_GEOMETRY
 10
16.0625
 11
16.0625
 20
21.5625
 21
25.5625
  0
ARC
  8
APS_GEOMETRY
 10
20.0625
 20
25.5625
 40
0.125
 50
0.0
 51
180.0
  0
LINE
  8
APS_GEOMETRY
 10
19.9375
 11
19.9375
 20
25.5625
 21
21.5625
  0
ARC
  8
APS_GEOMETRY
 10
20.0625
 20
21.5625
 40
0.125
 50
180.0
 51
0.0
  0
LINE
  8
APS_GEOMETRY
 10
20.1875
 11
20.1875
 20
21.5625
 21
25.5625
  0
LINE
  8
APS_GEOMETRY
 10
49.5
 11
72.0
 20
4.75
 21
4.75
  0
LINE
  8
APS_GEOMETRY
 10
71.25
 11
71.25
 20
4.75
 21
0.0
  0
LINE
  8
APS_GEOMETRY
 10
71.25
 11
72.0
 20
0.0
 21
0.0
  0
LINE
  8
APS_GEOMETRY
 10
72.0
 11
72.0
 20
0.0
 21
34.5
  0
LINE
  8
APS_GEOMETRY
 10
72.0
 11
48.75
 20
34.5
 21
34.5
  0
LINE
  8
APS_GEOMETRY
 10
48.75
 11
48.75
 20
34.5
 21
4.0
  0
LINE
  8
APS_GEOMETRY
 10
48.75
 11
49.5
 20
4.0
 21
4.0
  0
LINE
  8
APS_GEOMETRY
 10
49.5
 11
49.5
 20
4.0
 21
28.875
  0
LINE
  8
APS_GEOMETRY
 10
49.5
 11
49.5
 20
29.125
 21
34.5
  0
LINE
  8
APS_GEOMETRY
 10
71.0
 11
71.0
 20
34.5
 21
5.25
  0
LINE
  8
APS_GEOMETRY
 10
71.0
 11
71.25
 20
5.25
 21
5.25
  0
LINE
  8
APS_GEOMETRY
 10
71.25
 11
71.25
 20
5.25
 21
34.5
  0
LINE
  8
APS_GEOMETRY
 10
49.25
 11
70.25
 20
28.875
 21
28.875
  0
LINE
  8
APS_GEOMETRY
 10
70.25
 11
70.25
 20
28.875
 21
29.125
  0
LINE
  8
APS_GEOMETRY
 10
70.25
 11
49.25
 20
29.125
 21
29.125
  0
LINE
  8
APS_GEOMETRY
 10
49.25
 11
49.25
 20
29.125
 21
28.875
  0
LINE
  8
APS_GEOMETRY
 10
48.75
 11
48.0
 20
4.8125
 21
4.8125
  0
LINE
  8
APS_GEOMETRY
 10
48.0
 11
48.0
 20
4.8125
 21
27.5625
  0
LINE
  8
APS_GEOMETRY
 10
48.0
 11
48.75
 20
27.5625
 21
27.5625
  0
LINE
  8
APS_GEOMETRY
 10
48.75
 11
48.0
 20
27.6875
 21
27.6875
  0
LINE
  8
APS_GEOMETRY
 10
48.0
 11
48.0
 20
27.6875
 21
33.6875
  0
LINE
  8
APS_GEOMETRY
 10
48.0
 11
48.75
 20
33.6875
 21
33.6875
  0
LINE
  8
APS_GEOMETRY
 10
51.0
 11
51.0
 20
4.75
 21
0.0
  0
LINE
  8
APS_GEOMETRY
 10
51.0
 11
51.75
 20
0.0
 21
0.0
  0
LINE
  8
APS_GEOMETRY
 10
51.75
 11
51.75
 20
0.0
 21
4.75
  0
LINE
  8
APS_GEOMETRY
 10
51.75
 11
53.75
 20
4.0
 21
4.0
  0
LINE
  8
APS_GEOMETRY
 10
53.75
 11
53.75
 20
4.0
 21
4.75
  0
LINE
  8
APS_GEOMETRY
 10
69.25
 11
69.25
 20
4.75
 21
4.0
  0
LINE
  8
APS_GEOMETRY
 10
69.25
 11
71.25
 20
4.0
 21
4.0
  0
LINE
  8
APS_GEOMETRY
 10
51.75
 11
71.25
 20
0.5
 21
0.5
  0
LINE
  8
APS_GEOMETRY
 10
71.0
 11
49.625
 20
15.279528
 21
15.279528
  0
LINE
  8
APS_GEOMETRY
 10
49.625
 11
49.625
 20
15.279528
 21
16.029528
  0
LINE
  8
APS_GEOMETRY
 10
49.625
 11
71.0
 20
16.029528
 21
16.029528
  0
LINE
  8
APS_GEOMETRY
 10
48.75
 11
71.0
 20
5.5
 21
5.5
  0
LINE
  8
APS_GEOMETRY
 10
49.5
 11
53.5
 20
27.625
 21
27.625
  0
LINE
  8
APS_GEOMETRY
 10
53.5
 11
53.5
 20
27.625
 21
28.375
  0
LINE
  8
APS_GEOMETRY
 10
48.75
 11
70.75
 20
28.625
 21
28.625
  0
LINE
  8
APS_GEOMETRY
 10
70.75
 11
70.75
 20
28.625
 21
32.625
  0
LINE
  8
APS_GEOMETRY
 10
70.75
 11
48.75
 20
32.625
 21
32.625
  0
LINE
  8
APS_GEOMETRY
 10
48.75
 11
71.0
 20
28.375
 21
28.375
  0
LINE
  8
APS_GEOMETRY
 10
49.5
 11
71.0
 20
33.75
 21
33.75
  0
LINE
  8
APS_GEOMETRY
 10
70.0
 11
70.0
 20
28.625
 21
28.875
  0
LINE
  8
APS_GEOMETRY
 10
70.0
 11
70.0
 20
29.125
 21
32.625
  0
LINE
  8
APS_GEOMETRY
 10
53.5
 11
53.5
 20
33.75
 21
34.5
  0
LINE
  8
APS_GEOMETRY
 10
67.0
 11
67.0
 20
33.75
 21
34.5
  0
LINE
  8
APS_GEOMETRY
 10
48.75
 11
49.5
 20
26.875
 21
26.875
  0
LINE
  8
APS_GEOMETRY
 10
48.75
 11
49.5
 20
33.0
 21
33.0
  0
LINE
  8
APS_GEOMETRY
 10
71.25
 11
72.0
 20
5.5
 21
5.5
  0
LINE
  8
APS_GEOMETRY
 10
71.25
 11
72.0
 20
9.5
 21
9.5
  0
LINE
  8
APS_GEOMETRY
 10
71.25
 11
72.0
 20
30.5
 21
30.5
  0
CIRCLE
  8
APS_GEOMETRY
 10
69.75
 20
11.5
 40
0.098425
  0
CIRCLE
  8
APS_GEOMETRY
 10
69.75
 20
12.759843
 40
0.098425
  0
CIRCLE
  8
APS_GEOMETRY
 10
69.75
 20
14.019685
 40
0.098425
  0
CIRCLE
  8
APS_GEOMETRY
 10
69.75
 20
15.279528
 40
0.098425
  0
CIRCLE
  8
APS_GEOMETRY
 10
69.75
 20
16.53937
 40
0.098425
  0
CIRCLE
  8
APS_GEOMETRY
 10
69.75
 20
17.799213
 40
0.098425
  0
CIRCLE
  8
APS_GEOMETRY
 10
69.75
 20
19.059055
 40
0.098425
  0
CIRCLE
  8
APS_GEOMETRY
 10
69.75
 20
20.318898
 40
0.098425
  0
CIRCLE
  8
APS_GEOMETRY
 10
50.75
 20
11.5
 40
0.098425
  0
CIRCLE
  8
APS_GEOMETRY
 10
50.75
 20
12.759843
 40
0.098425
  0
CIRCLE
  8
APS_GEOMETRY
 10
50.75
 20
14.019685
 40
0.098425
  0
CIRCLE
  8
APS_GEOMETRY
 10
50.75
 20
15.279528
 40
0.098425
  0
CIRCLE
  8
APS_GEOMETRY
 10
50.75
 20
16.53937
 40
0.098425
  0
CIRCLE
  8
APS_GEOMETRY
 10
50.75
 20
17.799213
 40
0.098425
  0
CIRCLE
  8
APS_GEOMETRY
 10
50.75
 20
19.059055
 40
0.098425
  0
CIRCLE
  8
APS_GEOMETRY
 10
50.75
 20
20.318898
 40
0.098425
  0
LINE
  8
APS_GEOMETRY
 10
48.0
 11
46.875
 20
30.8125
 21
30.8125
  0
ARC
  8
APS_GEOMETRY
 10
46.875
 20
30.6875
 40
0.125
 50
90.0
 51
270.0
  0
LINE
  8
APS_GEOMETRY
 10
46.875
 11
48.0
 20
30.5625
 21
30.5625
  0
LINE
  8
APS_GEOMETRY
 10
48.0
 11
47.25
 20
21.6875
 21
21.6875
  0
ARC
  8
APS_GEOMETRY
 10
47.25
 20
21.9375
 40
0.25
 50
180.0
 51
270.0
  0
LINE
  8
APS_GEOMETRY
 10
47.0
 11
47.0
 20
21.9375
 21
25.1875
  0
ARC
  8
APS_GEOMETRY
 10
47.25
 20
25.1875
 40
0.25
 50
90.0
 51
180.0
  0
LINE
  8
APS_GEOMETRY
 10
47.25
 11
48.0
 20
25.4375
 21
25.4375
  0
LINE
  8
APS_GEOMETRY
 10
48.0
 11
47.25
 20
25.6875
 21
25.6875
  0
ARC
  8
APS_GEOMETRY
 10
47.25
 20
25.1875
 40
0.5
 50
90.0
 51
180.0
  0
LINE
  8
APS_GEOMETRY
 10
46.75
 11
46.75
 20
25.1875
 21
21.9375
  0
ARC
  8
APS_GEOMETRY
 10
47.25
 20
21.9375
 40
0.5
 50
180.0
 51
270.0
  0
LINE
  8
APS_GEOMETRY
 10
47.25
 11
48.0
 20
21.4375
 21
21.4375
  0
LINE
  8
DIMENSIONS
 10
0.0
 11
0.0
 20
72.5
 21
76.5
  0
LINE
  8
DIMENSIONS
 10
36.0
 11
36.0
 20
72.5
 21
76.5
  0
LINE
  8
DIMENSIONS
 10
0.0
 11
6.0
 20
76.0
 21
76.0
  0
LINE
  8
DIMENSIONS
 10
30.0
 11
36.0
 20
76.0
 21
76.0
  0
LINE
  8
DIMENSIONS
 10
1.0
 11
0.0
 20
75.8333
 21
76.0
  0
LINE
  8
DIMENSIONS
 10
0.0
 11
1.0
 20
76.0
 21
76.1667
  0
LINE
  8
DIMENSIONS
 10
1.0
 11
1.0
 20
76.1667
 21
75.8333
  0
LINE
  8
DIMENSIONS
 10
35.0
 11
36.0
 20
76.1667
 21
76.0
  0
LINE
  8
DIMENSIONS
 10
36.0
 11
35.0
 20
76.0
 21
75.8333
  0
LINE
  8
DIMENSIONS
 10
35.0
 11
35.0
 20
75.8333
 21
76.1667
  0
LINE
  8
CONSTRUCTION
 10
13.831379
 11
13.2078
 20
-12.46178
 21
-14.002913
  0
LINE
  8
CONSTRUCTION
 10
13.2078
 11
14.454958
 20
-14.002913
 21
-14.002913
  0
LINE
  8
CONSTRUCTION
 10
14.454958
 11
13.831379
 20
-14.002913
 21
-12.46178
  0
LINE
  8
CONSTRUCTION
 10
13.831379
 11
18.714561
 20
-12.46178
 21
-12.461764
  0
LINE
  8
CONSTRUCTION
 10
18.714561
 11
18.090982
 20
-12.461764
 21
-14.002897
  0
LINE
  8
CONSTRUCTION
 10
18.090982
 11
19.33814
 20
-14.002897
 21
-14.002897
  0
LINE
  8
CONSTRUCTION
 10
19.33814
 11
18.714561
 20
-14.002897
 21
-12.461764
  0
LINE
  8
CONSTRUCTION
 10
18.714561
 11
23.597731
 20
-12.461764
 21
-12.461764
  0
LINE
  8
CONSTRUCTION
 10
23.597731
 11
22.974152
 20
-12.461764
 21
-14.002897
  0
LINE
  8
CONSTRUCTION
 10
22.974152
 11
24.22131
 20
-14.002897
 21
-14.002897
  0
LINE
  8
CONSTRUCTION
 10
24.22131
 11
23.597731
 20
-14.002897
 21
-12.461764
  0
LINE
  8
CONSTRUCTION
 10
23.597731
 11
28.480901
 20
-12.461764
 21
-12.461764
  0
LINE
  8
CONSTRUCTION
 10
28.480901
 11
27.857322
 20
-12.461764
 21
-14.002897
  0
LINE
  8
CONSTRUCTION
 10
27.857322
 11
29.10448
 20
-14.002897
 21
-14.002897
  0
LINE
  8
CONSTRUCTION
 10
29.10448
 11
28.480901
 20
-14.002897
 21
-12.461764
  0
LINE
  8
CONSTRUCTION
 10
28.480901
 11
33.363373
 20
-12.461764
 21
-12.46178
  0
LINE
  8
CONSTRUCTION
 10
33.363373
 11
32.739794
 20
-12.46178
 21
-14.002913
  0
LINE
  8
CONSTRUCTION
 10
32.739794
 11
33.986952
 20
-14.002913
 21
-14.002913
  0
LINE
  8
CONSTRUCTION
 10
33.986952
 11
33.363373
 20
-14.002913
 21
-12.46178
  0
LINE
  8
CONSTRUCTION
 10
12.0
 11
60.0
 20
-18.74101
 21
-18.74101
  0
TEXT
  8
TEXT
 10
13.2
 20
-21.6
 30
0.0
 40
1.2
 50
0.0
  1
Phone: (406) 248-5010    Website: www.dovetailmt.com
  0
TEXT
  8
TEXT
 10
25.109495
 20
-19.685533
 30
0.0
 40
0.84
 50
0.0
  1
Established 1979
  0
TEXT
  8
TEXT
 10
39.312436
 20
-18.62101
 30
0.0
 40
1.188
 50
0.0
  1
& MILLWORK INC.
  0
TEXT
  8
TEXT
 10
13.2078
 20
-16.869403
 30
0.0
 40
2.688
 50
0.0
  1
DOVETAIL DESIGNS
  0
LINE
  8
TEXT
 10
38.5
 11
38.5
 20
55.137861
 21
55.571194
  0
LINE
  8
TEXT
 10
38.0
 11
38.0
 20
55.793416
 21
55.12675
  0
LINE
  8
TEXT
 10
38.0
 11
39.0
 20
55.12675
 21
55.12675
  0
LINE
  8
TEXT
 10
38.0
 11
39.0
 20
56.129109
 21
56.129109
  0
LINE
  8
TEXT
 10
39.000239
 11
39.0
 20
55.89345
 21
56.129109
  0
LINE
  8
TEXT
 10
39.0
 11
39.000239
 20
56.129109
 21
56.364768
  0
LINE
  8
TEXT
 10
38.000239
 11
38.0
 20
55.89345
 21
56.129109
  0
LINE
  8
TEXT
 10
38.0
 11
38.000239
 20
56.129109
 21
56.364768
  0
LINE
  8
TEXT
 10
39.0
 11
38.0
 20
56.564735
 21
56.564735
  0
LINE
  8
TEXT
 10
38.0
 11
38.0
 20
56.564735
 21
56.62029
  0
LINE
  8
TEXT
 10
38.0
 11
39.0
 20
56.62029
 21
57.175846
  0
LINE
  8
TEXT
 10
39.0
 11
39.0
 20
57.175846
 21
57.231402
  0
LINE
  8
TEXT
 10
39.0
 11
38.0
 20
57.231402
 21
57.231402
  0
LINE
  8
TEXT
 10
38.0
 11
39.0
 20
57.667095
 21
57.667095
  0
LINE
  8
TEXT
 10
39.000239
 11
39.0
 20
57.431435
 21
57.667095
  0
LINE
  8
TEXT
 10
39.0
 11
39.000239
 20
57.667095
 21
57.902754
  0
LINE
  8
TEXT
 10
38.000239
 11
38.0
 20
57.431435
 21
57.667095
  0
LINE
  8
TEXT
 10
38.0
 11
38.000239
 20
57.667095
 21
57.902754
  0
ARC
  8
TEXT
 10
38.393348
 20
58.430438
 40
0.411044
 50
132.9037
 51
212.5462
  0
ARC
  8
TEXT
 10
38.222825
 20
58.324925
 40
0.210556
 50
213.306702
 51
343.425563
  0
LINE
  8
TEXT
 10
38.424632
 11
38.535748
 20
58.264862
 21
58.598194
  0
ARC
  8
TEXT
 10
38.751049
 20
58.530326
 40
0.225744
 50
29.837943
 51
162.503854
  0
ARC
  8
TEXT
 10
38.571213
 20
58.425987
 40
0.433656
 50
330.02251
 51
29.973977
  0
ARC
  8
TEXT
 10
38.739354
 20
58.327878
 40
0.238989
 50
299.759272
 51
330.255342
  0
LINE
  8
TEXT
 10
38.466667
 11
38.466667
 20
58.955532
 21
59.655532
  0
LINE
  8
TEXT
 10
38.0
 11
39.0
 20
59.666643
 21
59.666643
  0
LINE
  8
TEXT
 10
38.0
 11
39.0
 20
58.944421
 21
58.944421
  0
LINE
  8
TEXT
 10
38.0
 11
38.0
 20
60.53331
 21
59.866643
  0
LINE
  8
TEXT
 10
38.0
 11
39.0
 20
59.866643
 21
59.866643
  0
LINE
  8
TEXT
 10
39.0
 11
39.0
 20
59.866643
 21
60.53331
  0
LINE
  8
TEXT
 10
38.466667
 11
38.466667
 20
59.877754
 21
60.311087
  0
ARC
  8
TEXT
 10
38.326311
 20
61.023143
 40
0.326311
 50
128.7145
 51
180.1655
  0
LINE
  8
TEXT
 10
38.000001
 11
38.0
 20
61.0222
 21
60.73331
  0
LINE
  8
TEXT
 10
38.0
 11
39.0
 20
60.73331
 21
60.73331
  0
LINE
  8
TEXT
 10
39.0
 11
39.0
 20
60.73331
 21
61.022199
  0
ARC
  8
TEXT
 10
38.67369
 20
61.023142
 40
0.326311
 50
359.83436
 51
51.285807
  0
ARC
  8
TEXT
 10
38.5
 20
60.811602
 40
0.600011
 50
50.978158
 51
129.021842
  0
LINE
  8
TEXT
 10
38.0
 11
38.0
 20
63.12828
 21
62.461613
  0
LINE
  8
TEXT
 10
38.0
 11
39.0
 20
62.461613
 21
62.461613
  0
LINE
  8
TEXT
 10
39.0
 11
39.0
 20
62.461613
 21
63.12828
  0
LINE
  8
TEXT
 10
38.466667
 11
38.466667
 20
62.472724
 21
62.906058
  0
LINE
  8
TEXT
 10
39.0
 11
38.0
 20
63.32828
 21
63.32828
  0
LINE
  8
TEXT
 10
38.0
 11
38.0
 20
63.32828
 21
63.383836
  0
LINE
  8
TEXT
 10
38.0
 11
39.0
 20
63.383836
 21
63.939391
  0
LINE
  8
TEXT
 10
39.0
 11
39.0
 20
63.939391
 21
63.994947
  0
LINE
  8
TEXT
 10
39.0
 11
38.0
 20
63.994947
 21
63.994947
  0
ARC
  8
TEXT
 10
38.326311
 20
64.48478
 40
0.326311
 50
128.7145
 51
180.1655
  0
LINE
  8
TEXT
 10
38.000001
 11
38.0
 20
64.483838
 21
64.194947
  0
LINE
  8
TEXT
 10
38.0
 11
39.0
 20
64.194947
 21
64.194947
  0
LINE
  8
TEXT
 10
39.0
 11
39.0
 20
64.194947
 21
64.483836
  0
ARC
  8
TEXT
 10
38.67369
 20
64.484779
 40
0.326311
 50
359.83436
 51
51.285807
  0
ARC
  8
TEXT
 10
38.5
 20
64.273239
 40
0.600011
 50
50.978158
 51
129.021842
  0
LINE
  8
TEXT
 10
-2.009492
 11
-2.676159
 20
65.741491
 21
65.741491
  0
ARC
  8
TEXT
 10
-2.676159
 20
65.408157
 40
0.333333
 50
90.0
 51
270.0
  0
LINE
  8
TEXT
 10
-2.676159
 11
-2.009492
 20
65.074824
 21
65.074824
  0
LINE
  8
TEXT
 10
-3.0
 11
-2.0
 20
64.87325
 21
64.87325
  0
LINE
  8
TEXT
 10
-2.0
 11
-2.0
 20
64.87325
 21
64.817695
  0
LINE
  8
TEXT
 10
-2.0
 11
-3.0
 20
64.817695
 21
64.262139
  0
LINE
  8
TEXT
 10
-3.0
 11
-3.0
 20
64.262139
 21
64.206584
  0
LINE
  8
TEXT
 10
-3.0
 11
-2.0
 20
64.206584
 21
64.206584
  0
LINE
  8
TEXT
 10
-2.5
 11
-2.5
 20
63.995473
 21
63.562139
  0
LINE
  8
TEXT
 10
-2.0
 11
-2.0
 20
63.339917
 21
64.006584
  0
LINE
  8
TEXT
 10
-2.0
 11
-3.0
 20
64.006584
 21
64.006584
  0
LINE
  8
TEXT
 10
-2.0
 11
-3.0
 20
63.004224
 21
63.004224
  0
LINE
  8
TEXT
 10
-3.000239
 11
-3.0
 20
63.239883
 21
63.004224
  0
LINE
  8
TEXT
 10
-3.0
 11
-3.000239
 20
63.004224
 21
62.768565
  0
LINE
  8
TEXT
 10
-2.000239
 11
-2.0
 20
63.239883
 21
63.004224
  0
LINE
  8
TEXT
 10
-2.0
 11
-2.000239
 20
63.004224
 21
62.768565
  0
LINE
  8
TEXT
 10
-3.0
 11
-2.0
 20
62.568598
 21
62.568598
  0
LINE
  8
TEXT
 10
-2.0
 11
-2.0
 20
62.568598
 21
62.513043
  0
LINE
  8
TEXT
 10
-2.0
 11
-3.0
 20
62.513043
 21
61.957487
  0
LINE
  8
TEXT
 10
-3.0
 11
-3.0
 20
61.957487
 21
61.901932
  0
LINE
  8
TEXT
 10
-3.0
 11
-2.0
 20
61.901932
 21
61.901932
  0
LINE
  8
TEXT
 10
-2.0
 11
-3.0
 20
61.466239
 21
61.466239
  0
LINE
  8
TEXT
 10
-3.000239
 11
-3.0
 20
61.701898
 21
61.466239
  0
LINE
  8
TEXT
 10
-3.0
 11
-3.000239
 20
61.466239
 21
61.230579
  0
LINE
  8
TEXT
 10
-2.000239
 11
-2.0
 20
61.701898
 21
61.466239
  0
LINE
  8
TEXT
 10
-2.0
 11
-2.000239
 20
61.466239
 21
61.230579
  0
ARC
  8
TEXT
 10
-2.393348
 20
60.702895
 40
0.411044
 50
312.9037
 51
32.5462
  0
ARC
  8
TEXT
 10
-2.222825
 20
60.808408
 40
0.210556
 50
33.306702
 51
163.425563
  0
LINE
  8
TEXT
 10
-2.424632
 11
-2.535748
 20
60.868471
 21
60.53514
  0
ARC
  8
TEXT
 10
-2.751049
 20
60.603008
 40
0.225744
 50
209.837943
 51
342.503854
  0
ARC
  8
TEXT
 10
-2.571213
 20
60.707346
 40
0.433656
 50
150.02251
 51
209.973977
  0
ARC
  8
TEXT
 10
-2.739354
 20
60.805455
 40
0.238989
 50
119.759272
 51
150.255342
  0
LINE
  8
TEXT
 10
-2.466667
 11
-2.466667
 20
60.177802
 21
59.477801
  0
LINE
  8
TEXT
 10
-2.0
 11
-3.0
 20
59.46669
 21
59.46669
  0
LINE
  8
TEXT
 10
-2.0
 11
-3.0
 20
60.188913
 21
60.188913
  0
LINE
  8
TEXT
 10
-2.0
 11
-2.0
 20
58.600024
 21
59.26669
  0
LINE
  8
TEXT
 10
-2.0
 11
-3.0
 20
59.26669
 21
59.26669
  0
LINE
  8
TEXT
 10
-3.0
 11
-3.0
 20
59.26669
 21
58.600024
  0
LINE
  8
TEXT
 10
-2.466667
 11
-2.466667
 20
59.255579
 21
58.822246
  0
ARC
  8
TEXT
 10
-2.326311
 20
58.11019
 40
0.326311
 50
308.7145
 51
0.1655
  0
LINE
  8
TEXT
 10
-2.000001
 11
-2.0
 20
58.111133
 21
58.400024
  0
LINE
  8
TEXT
 10
-2.0
 11
-3.0
 20
58.400024
 21
58.400024
  0
LINE
  8
TEXT
 10
-3.0
 11
-3.0
 20
58.400024
 21
58.111135
  0
ARC
  8
TEXT
 10
-2.67369
 20
58.110191
 40
0.326311
 50
179.83436
 51
231.285807
  0
ARC
  8
TEXT
 10
-2.5
 20
58.321731
 40
0.600011
 50
230.978158
 51
309.021842
  0
LINE
  8
TEXT
 10
-2.0
 11
-2.0
 20
56.005053
 21
56.67172
  0
LINE
  8
TEXT
 10
-2.0
 11
-3.0
 20
56.67172
 21
56.67172
  0
LINE
  8
TEXT
 10
-3.0
 11
-3.0
 20
56.67172
 21
56.005053
  0
LINE
  8
TEXT
 10
-2.466667
 11
-2.466667
 20
56.660609
 21
56.227275
  0
LINE
  8
TEXT
 10
-3.0
 11
-2.0
 20
55.805053
 21
55.805053
  0
LINE
  8
TEXT
 10
-2.0
 11
-2.0
 20
55.805053
 21
55.749498
  0
LINE
  8
TEXT
 10
-2.0
 11
-3.0
 20
55.749498
 21
55.193942
  0
LINE
  8
TEXT
 10
-3.0
 11
-3.0
 20
55.193942
 21
55.138387
  0
LINE
  8
TEXT
 10
-3.0
 11
-2.0
 20
55.138387
 21
55.138387
  0
ARC
  8
TEXT
 10
-2.326311
 20
54.648553
 40
0.326311
 50
308.7145
 51
0.1655
  0
LINE
  8
TEXT
 10
-2.000001
 11
-2.0
 20
54.649496
 21
54.938387
  0
LINE
  8
TEXT
 10
-2.0
 11
-3.0
 20
54.938387
 21
54.938387
  0
LINE
  8
TEXT
 10
-3.0
 11
-3.0
 20
54.938387
 21
54.649498
  0
ARC
  8
TEXT
 10
-2.67369
 20
54.648554
 40
0.326311
 50
179.83436
 51
231.285807
  0
ARC
  8
TEXT
 10
-2.5
 20
54.860094
 40
0.600011
 50
230.978158
 51
309.021842
  0
TEXT
  8
TEXT
 10
18.0
 20
75.5
 30
0.0
 40
1.0
 50
0.0
  1
CABINETS EXCEEDING 36" WIDE
  0
TEXT
  8
TEXT
 10
18.0
 20
74.0
 30
0.0
 40
1.0
 50
0.0
  1
WILL NEED A PARTITION
  0
ENDSEC
  0
EOF
