  0
SECTION
  2
ENTITIES
  0
LINE
  8
APS_GEOMETRY
 10
0.5
 11
35.5
 20
127.0
 21
127.0
  0
LINE
  8
APS_GEOMETRY
 10
35.5
 11
35.5
 20
127.0
 21
127.25
  0
LINE
  8
APS_GEOMETRY
 10
35.5
 11
0.5
 20
127.25
 21
127.25
  0
LINE
  8
APS_GEOMETRY
 10
0.5
 11
0.5
 20
127.25
 21
127.0
  0
LINE
  8
APS_GEOMETRY
 10
-0.75
 11
36.75
 20
102.0
 21
102.0
  0
LINE
  8
APS_GEOMETRY
 10
36.75
 11
36.75
 20
102.0
 21
102.75
  0
LINE
  8
APS_GEOMETRY
 10
36.75
 11
-0.75
 20
102.75
 21
102.75
  0
LINE
  8
APS_GEOMETRY
 10
-0.75
 11
-0.75
 20
102.75
 21
102.0
  0
LINE
  8
APS_GEOMETRY
 10
0.0
 11
0.0
 20
102.75
 21
128.0
  0
LINE
  8
APS_GEOMETRY
 10
0.0
 11
36.0
 20
128.0
 21
128.0
  0
LINE
  8
APS_GEOMETRY
 10
36.0
 11
36.0
 20
128.0
 21
102.75
  0
LINE
  8
APS_GEOMETRY
 10
0.75
 11
0.75
 20
102.0
 21
127.0
  0
LINE
  8
APS_GEOMETRY
 10
0.75
 11
0.75
 20
127.25
 21
128.0
  0
LINE
  8
APS_GEOMETRY
 10
35.25
 11
35.25
 20
102.0
 21
127.0
  0
LINE
  8
APS_GEOMETRY
 10
35.25
 11
35.25
 20
127.25
 21
128.0
  0
LINE
  8
APS_GEOMETRY
 10
36.75
 11
36.75
 20
102.75
 21
128.0
  0
LINE
  8
APS_GEOMETRY
 10
36.75
 11
36.0
 20
128.0
 21
128.0
  0
LINE
  8
APS_GEOMETRY
 10
15.8125
 11
15.8125
 20
102.0
 21
100.875
  0
ARC
  8
APS_GEOMETRY
 10
15.9375
 20
100.875
 40
0.125
 50
180.0
 51
0.0
  0
LINE
  8
APS_GEOMETRY
 10
16.0625
 11
16.0625
 20
100.875
 21
102.0
  0
LINE
  8
APS_GEOMETRY
 10
19.9375
 11
19.9375
 20
102.0
 21
100.875
  0
ARC
  8
APS_GEOMETRY
 10
20.0625
 20
100.875
 40
0.125
 50
180.0
 51
0.0
  0
LINE
  8
APS_GEOMETRY
 10
20.1875
 11
20.1875
 20
100.875
 21
102.0
  0
LINE
  8
APS_GEOMETRY
 10
-0.75
 11
36.75
 20
4.0
 21
4.0
  0
LINE
  8
APS_GEOMETRY
 10
36.75
 11
36.75
 20
4.0
 21
90.0
  0
LINE
  8
APS_GEOMETRY
 10
36.75
 11
-0.75
 20
90.0
 21
90.0
  0
LINE
  8
APS_GEOMETRY
 10
-0.75
 11
-0.75
 20
90.0
 21
4.0
  0
LINE
  8
APS_GEOMETRY
 10
0.75
 11
35.25
 20
5.5
 21
5.5
  0
LINE
  8
APS_GEOMETRY
 10
35.25
 11
35.25
 20
5.5
 21
33.0
  0
LINE
  8
APS_GEOMETRY
 10
35.25
 11
0.75
 20
33.0
 21
33.0
  0
LINE
  8
APS_GEOMETRY
 10
0.75
 11
0.75
 20
33.0
 21
5.5
  0
LINE
  8
APS_GEOMETRY
 10
0.75
 11
35.25
 20
34.5
 21
34.5
  0
LINE
  8
APS_GEOMETRY
 10
35.25
 11
35.25
 20
34.5
 21
88.5
  0
LINE
  8
APS_GEOMETRY
 10
35.25
 11
0.75
 20
88.5
 21
88.5
  0
LINE
  8
APS_GEOMETRY
 10
0.75
 11
0.75
 20
88.5
 21
34.5
  0
LINE
  8
APS_GEOMETRY
 10
0.875
 11
17.9375
 20
5.625
 21
5.625
  0
LINE
  8
APS_GEOMETRY
 10
17.9375
 11
17.9375
 20
5.625
 21
32.875
  0
LINE
  8
APS_GEOMETRY
 10
17.9375
 11
0.875
 20
32.875
 21
32.875
  0
LINE
  8
APS_GEOMETRY
 10
0.875
 11
0.875
 20
32.875
 21
5.625
  0
LINE
  8
APS_GEOMETRY
 10
18.0625
 11
35.125
 20
5.625
 21
5.625
  0
LINE
  8
APS_GEOMETRY
 10
35.125
 11
35.125
 20
5.625
 21
32.875
  0
LINE
  8
APS_GEOMETRY
 10
35.125
 11
18.0625
 20
32.875
 21
32.875
  0
LINE
  8
APS_GEOMETRY
 10
18.0625
 11
18.0625
 20
32.875
 21
5.625
  0
LINE
  8
APS_GEOMETRY
 10
0.875
 11
17.9375
 20
34.625
 21
34.625
  0
LINE
  8
APS_GEOMETRY
 10
17.9375
 11
17.9375
 20
34.625
 21
88.375
  0
LINE
  8
APS_GEOMETRY
 10
17.9375
 11
0.875
 20
88.375
 21
88.375
  0
LINE
  8
APS_GEOMETRY
 10
0.875
 11
0.875
 20
88.375
 21
34.625
  0
LINE
  8
APS_GEOMETRY
 10
18.0625
 11
35.125
 20
34.625
 21
34.625
  0
LINE
  8
APS_GEOMETRY
 10
35.125
 11
35.125
 20
34.625
 21
88.375
  0
LINE
  8
APS_GEOMETRY
 10
35.125
 11
18.0625
 20
88.375
 21
88.375
  0
LINE
  8
APS_GEOMETRY
 10
18.0625
 11
18.0625
 20
88.375
 21
34.625
  0
LINE
  8
APS_GEOMETRY
 10
1.0
 11
1.0
 20
4.0
 21
0.0
  0
LINE
  8
APS_GEOMETRY
 10
1.0
 11
35.0
 20
0.0
 21
0.0
  0
LINE
  8
APS_GEOMETRY
 10
35.0
 11
35.0
 20
0.0
 21
4.0
  0
ARC
  8
APS_GEOMETRY
 10
15.9375
 20
30.875
 40
0.125
 50
0.0
 51
180.0
  0
LINE
  8
APS_GEOMETRY
 10
15.8125
 11
15.8125
 20
30.875
 21
26.875
  0
ARC
  8
APS_GEOMETRY
 10
15.9375
 20
26.875
 40
0.125
 50
180.0
 51
0.0
  0
LINE
  8
APS_GEOMETRY
 10
16.0625
 11
16.0625
 20
26.875
 21
30.875
  0
ARC
  8
APS_GEOMETRY
 10
20.0625
 20
30.875
 40
0.125
 50
0.0
 51
180.0
  0
LINE
  8
APS_GEOMETRY
 10
19.9375
 11
19.9375
 20
30.875
 21
26.875
  0
ARC
  8
APS_GEOMETRY
 10
20.0625
 20
26.875
 40
0.125
 50
180.0
 51
0.0
  0
LINE
  8
APS_GEOMETRY
 10
20.1875
 11
20.1875
 20
26.875
 21
30.875
  0
ARC
  8
APS_GEOMETRY
 10
15.9375
 20
40.625
 40
0.125
 50
0.0
 51
180.0
  0
LINE
  8
APS_GEOMETRY
 10
15.8125
 11
15.8125
 20
40.625
 21
36.625
  0
ARC
  8
APS_GEOMETRY
 10
15.9375
 20
36.625
 40
0.125
 50
180.0
 51
0.0
  0
LINE
  8
APS_GEOMETRY
 10
16.0625
 11
16.0625
 20
36.625
 21
40.625
  0
ARC
  8
APS_GEOMETRY
 10
20.0625
 20
40.625
 40
0.125
 50
0.0
 51
180.0
  0
LINE
  8
APS_GEOMETRY
 10
19.9375
 11
19.9375
 20
40.625
 21
36.625
  0
ARC
  8
APS_GEOMETRY
 10
20.0625
 20
36.625
 40
0.125
 50
180.0
 51
0.0
  0
LINE
  8
APS_GEOMETRY
 10
20.1875
 11
20.1875
 20
36.625
 21
40.625
  0
LINE
  8
APS_GEOMETRY
 10
48.75
 11
74.0
 20
4.75
 21
4.75
  0
LINE
  8
APS_GEOMETRY
 10
73.25
 11
73.25
 20
4.75
 21
0.0
  0
LINE
  8
APS_GEOMETRY
 10
73.25
 11
74.0
 20
0.0
 21
0.0
  0
LINE
  8
APS_GEOMETRY
 10
74.0
 11
74.0
 20
0.0
 21
90.0
  0
LINE
  8
APS_GEOMETRY
 10
74.0
 11
48.0
 20
90.0
 21
90.0
  0
LINE
  8
APS_GEOMETRY
 10
48.0
 11
48.0
 20
90.0
 21
4.0
  0
LINE
  8
APS_GEOMETRY
 10
48.0
 11
48.75
 20
4.0
 21
4.0
  0
LINE
  8
APS_GEOMETRY
 10
48.75
 11
48.75
 20
4.0
 21
90.0
  0
LINE
  8
APS_GEOMETRY
 10
73.0
 11
73.0
 20
90.0
 21
5.25
  0
LINE
  8
APS_GEOMETRY
 10
73.0
 11
73.25
 20
5.25
 21
5.25
  0
LINE
  8
APS_GEOMETRY
 10
73.25
 11
73.25
 20
5.25
 21
90.0
  0
LINE
  8
APS_GEOMETRY
 10
53.0
 11
53.0
 20
4.75
 21
0.0
  0
LINE
  8
APS_GEOMETRY
 10
53.0
 11
53.75
 20
0.0
 21
0.0
  0
LINE
  8
APS_GEOMETRY
 10
53.75
 11
53.75
 20
0.0
 21
4.75
  0
LINE
  8
APS_GEOMETRY
 10
53.75
 11
55.75
 20
4.0
 21
4.0
  0
LINE
  8
APS_GEOMETRY
 10
55.75
 11
55.75
 20
4.0
 21
4.75
  0
LINE
  8
APS_GEOMETRY
 10
71.25
 11
71.25
 20
4.75
 21
4.0
  0
LINE
  8
APS_GEOMETRY
 10
71.25
 11
73.25
 20
4.0
 21
4.0
  0
LINE
  8
APS_GEOMETRY
 10
53.75
 11
73.25
 20
0.5
 21
0.5
  0
LINE
  8
APS_GEOMETRY
 10
73.0
 11
48.875
 20
19.059055
 21
19.059055
  0
LINE
  8
APS_GEOMETRY
 10
48.875
 11
48.875
 20
19.059055
 21
19.809055
  0
LINE
  8
APS_GEOMETRY
 10
48.875
 11
73.0
 20
19.809055
 21
19.809055
  0
LINE
  8
APS_GEOMETRY
 10
73.0
 11
48.875
 20
51.838583
 21
51.838583
  0
LINE
  8
APS_GEOMETRY
 10
48.875
 11
48.875
 20
51.838583
 21
52.588583
  0
LINE
  8
APS_GEOMETRY
 10
48.875
 11
73.0
 20
52.588583
 21
52.588583
  0
LINE
  8
APS_GEOMETRY
 10
73.0
 11
48.875
 20
70.73622
 21
70.73622
  0
LINE
  8
APS_GEOMETRY
 10
48.875
 11
48.875
 20
70.73622
 21
71.48622
  0
LINE
  8
APS_GEOMETRY
 10
48.875
 11
73.0
 20
71.48622
 21
71.48622
  0
LINE
  8
APS_GEOMETRY
 10
48.0
 11
73.0
 20
5.5
 21
5.5
  0
LINE
  8
APS_GEOMETRY
 10
48.75
 11
73.0
 20
89.25
 21
89.25
  0
LINE
  8
APS_GEOMETRY
 10
48.75
 11
73.0
 20
33.75
 21
33.75
  0
LINE
  8
APS_GEOMETRY
 10
48.0
 11
73.0
 20
34.5
 21
34.5
  0
LINE
  8
APS_GEOMETRY
 10
48.0
 11
48.75
 20
5.625
 21
5.625
  0
LINE
  8
APS_GEOMETRY
 10
48.0
 11
48.75
 20
32.875
 21
32.875
  0
LINE
  8
APS_GEOMETRY
 10
48.0
 11
48.75
 20
33.0
 21
33.0
  0
LINE
  8
APS_GEOMETRY
 10
48.0
 11
48.75
 20
34.625
 21
34.625
  0
LINE
  8
APS_GEOMETRY
 10
48.0
 11
48.75
 20
88.375
 21
88.375
  0
LINE
  8
APS_GEOMETRY
 10
48.0
 11
48.75
 20
88.5
 21
88.5
  0
LINE
  8
APS_GEOMETRY
 10
73.25
 11
74.0
 20
5.5
 21
5.5
  0
LINE
  8
APS_GEOMETRY
 10
73.25
 11
74.0
 20
9.5
 21
9.5
  0
LINE
  8
APS_GEOMETRY
 10
73.25
 11
74.0
 20
86.0
 21
86.0
  0
CIRCLE
  8
APS_GEOMETRY
 10
71.75
 20
11.5
 40
0.098425
  0
CIRCLE
  8
APS_GEOMETRY
 10
71.75
 20
12.759843
 40
0.098425
  0
CIRCLE
  8
APS_GEOMETRY
 10
71.75
 20
14.019685
 40
0.098425
  0
CIRCLE
  8
APS_GEOMETRY
 10
71.75
 20
15.279528
 40
0.098425
  0
CIRCLE
  8
APS_GEOMETRY
 10
71.75
 20
16.53937
 40
0.098425
  0
CIRCLE
  8
APS_GEOMETRY
 10
71.75
 20
17.799213
 40
0.098425
  0
CIRCLE
  8
APS_GEOMETRY
 10
71.75
 20
19.059055
 40
0.098425
  0
CIRCLE
  8
APS_GEOMETRY
 10
71.75
 20
20.318898
 40
0.098425
  0
CIRCLE
  8
APS_GEOMETRY
 10
50.0
 20
11.5
 40
0.098425
  0
CIRCLE
  8
APS_GEOMETRY
 10
50.0
 20
12.759843
 40
0.098425
  0
CIRCLE
  8
APS_GEOMETRY
 10
50.0
 20
14.019685
 40
0.098425
  0
CIRCLE
  8
APS_GEOMETRY
 10
50.0
 20
15.279528
 40
0.098425
  0
CIRCLE
  8
APS_GEOMETRY
 10
50.0
 20
16.53937
 40
0.098425
  0
CIRCLE
  8
APS_GEOMETRY
 10
50.0
 20
17.799213
 40
0.098425
  0
CIRCLE
  8
APS_GEOMETRY
 10
50.0
 20
19.059055
 40
0.098425
  0
CIRCLE
  8
APS_GEOMETRY
 10
50.0
 20
20.318898
 40
0.098425
  0
CIRCLE
  8
APS_GEOMETRY
 10
71.75
 20
21.57874
 40
0.098425
  0
CIRCLE
  8
APS_GEOMETRY
 10
50.0
 20
21.57874
 40
0.098425
  0
CIRCLE
  8
APS_GEOMETRY
 10
71.75
 20
22.838583
 40
0.098425
  0
CIRCLE
  8
APS_GEOMETRY
 10
50.0
 20
22.838583
 40
0.098425
  0
CIRCLE
  8
APS_GEOMETRY
 10
71.75
 20
24.098425
 40
0.098425
  0
CIRCLE
  8
APS_GEOMETRY
 10
50.0
 20
24.098425
 40
0.098425
  0
CIRCLE
  8
APS_GEOMETRY
 10
71.75
 20
25.358268
 40
0.098425
  0
CIRCLE
  8
APS_GEOMETRY
 10
50.0
 20
25.358268
 40
0.098425
  0
CIRCLE
  8
APS_GEOMETRY
 10
71.75
 20
26.61811
 40
0.098425
  0
CIRCLE
  8
APS_GEOMETRY
 10
50.0
 20
26.61811
 40
0.098425
  0
CIRCLE
  8
APS_GEOMETRY
 10
71.75
 20
40.5
 40
0.098425
  0
CIRCLE
  8
APS_GEOMETRY
 10
71.75
 20
41.759843
 40
0.098425
  0
CIRCLE
  8
APS_GEOMETRY
 10
71.75
 20
43.019685
 40
0.098425
  0
CIRCLE
  8
APS_GEOMETRY
 10
71.75
 20
44.279528
 40
0.098425
  0
CIRCLE
  8
APS_GEOMETRY
 10
71.75
 20
45.53937
 40
0.098425
  0
CIRCLE
  8
APS_GEOMETRY
 10
71.75
 20
46.799213
 40
0.098425
  0
CIRCLE
  8
APS_GEOMETRY
 10
71.75
 20
48.059055
 40
0.098425
  0
CIRCLE
  8
APS_GEOMETRY
 10
71.75
 20
49.318898
 40
0.098425
  0
CIRCLE
  8
APS_GEOMETRY
 10
50.0
 20
40.5
 40
0.098425
  0
CIRCLE
  8
APS_GEOMETRY
 10
50.0
 20
41.759843
 40
0.098425
  0
CIRCLE
  8
APS_GEOMETRY
 10
50.0
 20
43.019685
 40
0.098425
  0
CIRCLE
  8
APS_GEOMETRY
 10
50.0
 20
44.279528
 40
0.098425
  0
CIRCLE
  8
APS_GEOMETRY
 10
50.0
 20
45.53937
 40
0.098425
  0
CIRCLE
  8
APS_GEOMETRY
 10
50.0
 20
46.799213
 40
0.098425
  0
CIRCLE
  8
APS_GEOMETRY
 10
50.0
 20
48.059055
 40
0.098425
  0
CIRCLE
  8
APS_GEOMETRY
 10
50.0
 20
49.318898
 40
0.098425
  0
CIRCLE
  8
APS_GEOMETRY
 10
71.75
 20
50.57874
 40
0.098425
  0
CIRCLE
  8
APS_GEOMETRY
 10
50.0
 20
50.57874
 40
0.098425
  0
CIRCLE
  8
APS_GEOMETRY
 10
71.75
 20
51.838583
 40
0.098425
  0
CIRCLE
  8
APS_GEOMETRY
 10
50.0
 20
51.838583
 40
0.098425
  0
CIRCLE
  8
APS_GEOMETRY
 10
71.75
 20
53.098425
 40
0.098425
  0
CIRCLE
  8
APS_GEOMETRY
 10
50.0
 20
53.098425
 40
0.098425
  0
CIRCLE
  8
APS_GEOMETRY
 10
71.75
 20
54.358268
 40
0.098425
  0
CIRCLE
  8
APS_GEOMETRY
 10
50.0
 20
54.358268
 40
0.098425
  0
CIRCLE
  8
APS_GEOMETRY
 10
71.75
 20
55.61811
 40
0.098425
  0
CIRCLE
  8
APS_GEOMETRY
 10
50.0
 20
55.61811
 40
0.098425
  0
CIRCLE
  8
APS_GEOMETRY
 10
71.75
 20
56.877953
 40
0.098425
  0
CIRCLE
  8
APS_GEOMETRY
 10
50.0
 20
56.877953
 40
0.098425
  0
CIRCLE
  8
APS_GEOMETRY
 10
71.75
 20
58.137795
 40
0.098425
  0
CIRCLE
  8
APS_GEOMETRY
 10
50.0
 20
58.137795
 40
0.098425
  0
CIRCLE
  8
APS_GEOMETRY
 10
71.75
 20
59.397638
 40
0.098425
  0
CIRCLE
  8
APS_GEOMETRY
 10
50.0
 20
59.397638
 40
0.098425
  0
CIRCLE
  8
APS_GEOMETRY
 10
71.75
 20
60.65748
 40
0.098425
  0
CIRCLE
  8
APS_GEOMETRY
 10
50.0
 20
60.65748
 40
0.098425
  0
CIRCLE
  8
APS_GEOMETRY
 10
71.75
 20
61.917323
 40
0.098425
  0
CIRCLE
  8
APS_GEOMETRY
 10
50.0
 20
61.917323
 40
0.098425
  0
CIRCLE
  8
APS_GEOMETRY
 10
71.75
 20
63.177165
 40
0.098425
  0
CIRCLE
  8
APS_GEOMETRY
 10
50.0
 20
63.177165
 40
0.098425
  0
CIRCLE
  8
APS_GEOMETRY
 10
71.75
 20
64.437008
 40
0.098425
  0
CIRCLE
  8
APS_GEOMETRY
 10
50.0
 20
64.437008
 40
0.098425
  0
CIRCLE
  8
APS_GEOMETRY
 10
71.75
 20
65.69685
 40
0.098425
  0
CIRCLE
  8
APS_GEOMETRY
 10
50.0
 20
65.69685
 40
0.098425
  0
CIRCLE
  8
APS_GEOMETRY
 10
71.75
 20
66.956693
 40
0.098425
  0
CIRCLE
  8
APS_GEOMETRY
 10
50.0
 20
66.956693
 40
0.098425
  0
CIRCLE
  8
APS_GEOMETRY
 10
71.75
 20
68.216535
 40
0.098425
  0
CIRCLE
  8
APS_GEOMETRY
 10
50.0
 20
68.216535
 40
0.098425
  0
CIRCLE
  8
APS_GEOMETRY
 10
71.75
 20
69.476378
 40
0.098425
  0
CIRCLE
  8
APS_GEOMETRY
 10
50.0
 20
69.476378
 40
0.098425
  0
CIRCLE
  8
APS_GEOMETRY
 10
71.75
 20
70.73622
 40
0.098425
  0
CIRCLE
  8
APS_GEOMETRY
 10
50.0
 20
70.73622
 40
0.098425
  0
CIRCLE
  8
APS_GEOMETRY
 10
71.75
 20
71.996063
 40
0.098425
  0
CIRCLE
  8
APS_GEOMETRY
 10
50.0
 20
71.996063
 40
0.098425
  0
CIRCLE
  8
APS_GEOMETRY
 10
71.75
 20
73.255906
 40
0.098425
  0
CIRCLE
  8
APS_GEOMETRY
 10
50.0
 20
73.255906
 40
0.098425
  0
CIRCLE
  8
APS_GEOMETRY
 10
71.75
 20
74.515748
 40
0.098425
  0
CIRCLE
  8
APS_GEOMETRY
 10
50.0
 20
74.515748
 40
0.098425
  0
CIRCLE
  8
APS_GEOMETRY
 10
71.75
 20
75.775591
 40
0.098425
  0
CIRCLE
  8
APS_GEOMETRY
 10
50.0
 20
75.775591
 40
0.098425
  0
CIRCLE
  8
APS_GEOMETRY
 10
71.75
 20
77.035433
 40
0.098425
  0
CIRCLE
  8
APS_GEOMETRY
 10
50.0
 20
77.035433
 40
0.098425
  0
CIRCLE
  8
APS_GEOMETRY
 10
71.75
 20
78.295276
 40
0.098425
  0
CIRCLE
  8
APS_GEOMETRY
 10
50.0
 20
78.295276
 40
0.098425
  0
CIRCLE
  8
APS_GEOMETRY
 10
71.75
 20
79.555118
 40
0.098425
  0
CIRCLE
  8
APS_GEOMETRY
 10
50.0
 20
79.555118
 40
0.098425
  0
CIRCLE
  8
APS_GEOMETRY
 10
71.75
 20
80.814961
 40
0.098425
  0
CIRCLE
  8
APS_GEOMETRY
 10
50.0
 20
80.814961
 40
0.098425
  0
CIRCLE
  8
APS_GEOMETRY
 10
71.75
 20
82.074803
 40
0.098425
  0
CIRCLE
  8
APS_GEOMETRY
 10
50.0
 20
82.074803
 40
0.098425
  0
LINE
  8
APS_GEOMETRY
 10
48.0
 11
47.25
 20
27.0
 21
27.0
  0
ARC
  8
APS_GEOMETRY
 10
47.25
 20
27.25
 40
0.25
 50
180.0
 51
270.0
  0
LINE
  8
APS_GEOMETRY
 10
47.0
 11
47.0
 20
27.25
 21
30.5
  0
ARC
  8
APS_GEOMETRY
 10
47.25
 20
30.5
 40
0.25
 50
90.0
 51
180.0
  0
LINE
  8
APS_GEOMETRY
 10
47.25
 11
48.0
 20
30.75
 21
30.75
  0
LINE
  8
APS_GEOMETRY
 10
48.0
 11
47.25
 20
31.0
 21
31.0
  0
ARC
  8
APS_GEOMETRY
 10
47.25
 20
30.5
 40
0.5
 50
90.0
 51
180.0
  0
LINE
  8
APS_GEOMETRY
 10
46.75
 11
46.75
 20
30.5
 21
27.25
  0
ARC
  8
APS_GEOMETRY
 10
47.25
 20
27.25
 40
0.5
 50
180.0
 51
270.0
  0
LINE
  8
APS_GEOMETRY
 10
47.25
 11
48.0
 20
26.75
 21
26.75
  0
LINE
  8
APS_GEOMETRY
 10
48.0
 11
47.25
 20
36.75
 21
36.75
  0
ARC
  8
APS_GEOMETRY
 10
47.25
 20
37.0
 40
0.25
 50
180.0
 51
270.0
  0
LINE
  8
APS_GEOMETRY
 10
47.0
 11
47.0
 20
37.0
 21
40.25
  0
ARC
  8
APS_GEOMETRY
 10
47.25
 20
40.25
 40
0.25
 50
90.0
 51
180.0
  0
LINE
  8
APS_GEOMETRY
 10
47.25
 11
48.0
 20
40.5
 21
40.5
  0
LINE
  8
APS_GEOMETRY
 10
48.0
 11
47.25
 20
40.75
 21
40.75
  0
ARC
  8
APS_GEOMETRY
 10
47.25
 20
40.25
 40
0.5
 50
90.0
 51
180.0
  0
LINE
  8
APS_GEOMETRY
 10
46.75
 11
46.75
 20
40.25
 21
37.0
  0
ARC
  8
APS_GEOMETRY
 10
47.25
 20
37.0
 40
0.5
 50
180.0
 51
270.0
  0
LINE
  8
APS_GEOMETRY
 10
47.25
 11
48.0
 20
36.5
 21
36.5
  0
LINE
  8
DIMENSIONS
 10
0.0
 11
0.0
 20
128.5
 21
132.5
  0
LINE
  8
DIMENSIONS
 10
36.0
 11
36.0
 20
128.5
 21
132.5
  0
LINE
  8
DIMENSIONS
 10
0.0
 11
6.0
 20
132.0
 21
132.0
  0
LINE
  8
DIMENSIONS
 10
30.0
 11
36.0
 20
132.0
 21
132.0
  0
LINE
  8
DIMENSIONS
 10
1.0
 11
0.0
 20
131.8333
 21
132.0
  0
LINE
  8
DIMENSIONS
 10
0.0
 11
1.0
 20
132.0
 21
132.1667
  0
LINE
  8
DIMENSIONS
 10
1.0
 11
1.0
 20
132.1667
 21
131.8333
  0
LINE
  8
DIMENSIONS
 10
35.0
 11
36.0
 20
132.1667
 21
132.0
  0
LINE
  8
DIMENSIONS
 10
36.0
 11
35.0
 20
132.0
 21
131.8333
  0
LINE
  8
DIMENSIONS
 10
35.0
 11
35.0
 20
131.8333
 21
132.1667
  0
LINE
  8
CONSTRUCTION
 10
13.831379
 11
13.2078
 20
-12.46178
 21
-14.002913
  0
LINE
  8
CONSTRUCTION
 10
13.2078
 11
14.454958
 20
-14.002913
 21
-14.002913
  0
LINE
  8
CONSTRUCTION
 10
14.454958
 11
13.831379
 20
-14.002913
 21
-12.46178
  0
LINE
  8
CONSTRUCTION
 10
13.831379
 11
18.714561
 20
-12.46178
 21
-12.461764
  0
LINE
  8
CONSTRUCTION
 10
18.714561
 11
18.090982
 20
-12.461764
 21
-14.002897
  0
LINE
  8
CONSTRUCTION
 10
18.090982
 11
19.33814
 20
-14.002897
 21
-14.002897
  0
LINE
  8
CONSTRUCTION
 10
19.33814
 11
18.714561
 20
-14.002897
 21
-12.461764
  0
LINE
  8
CONSTRUCTION
 10
18.714561
 11
23.597731
 20
-12.461764
 21
-12.461764
  0
LINE
  8
CONSTRUCTION
 10
23.597731
 11
22.974152
 20
-12.461764
 21
-14.002897
  0
LINE
  8
CONSTRUCTION
 10
22.974152
 11
24.22131
 20
-14.002897
 21
-14.002897
  0
LINE
  8
CONSTRUCTION
 10
24.22131
 11
23.597731
 20
-14.002897
 21
-12.461764
  0
LINE
  8
CONSTRUCTION
 10
23.597731
 11
28.480901
 20
-12.461764
 21
-12.461764
  0
LINE
  8
CONSTRUCTION
 10
28.480901
 11
27.857322
 20
-12.461764
 21
-14.002897
  0
LINE
  8
CONSTRUCTION
 10
27.857322
 11
29.10448
 20
-14.002897
 21
-14.002897
  0
LINE
  8
CONSTRUCTION
 10
29.10448
 11
28.480901
 20
-14.002897
 21
-12.461764
  0
LINE
  8
CONSTRUCTION
 10
28.480901
 11
33.363373
 20
-12.461764
 21
-12.46178
  0
LINE
  8
CONSTRUCTION
 10
33.363373
 11
32.739794
 20
-12.46178
 21
-14.002913
  0
LINE
  8
CONSTRUCTION
 10
32.739794
 11
33.986952
 20
-14.002913
 21
-14.002913
  0
LINE
  8
CONSTRUCTION
 10
33.986952
 11
33.363373
 20
-14.002913
 21
-12.46178
  0
LINE
  8
CONSTRUCTION
 10
12.0
 11
60.0
 20
-18.74101
 21
-18.74101
  0
TEXT
  8
TEXT
 10
13.2
 20
-21.6
 30
0.0
 40
1.2
 50
0.0
  1
Phone: (406) 248-5010    Website: www.dovetailmt.com
  0
TEXT
  8
TEXT
 10
25.109495
 20
-19.685533
 30
0.0
 40
0.84
 50
0.0
  1
Established 1979
  0
TEXT
  8
TEXT
 10
39.312436
 20
-18.62101
 30
0.0
 40
1.188
 50
0.0
  1
& MILLWORK INC.
  0
TEXT
  8
TEXT
 10
13.2078
 20
-16.869403
 30
0.0
 40
2.688
 50
0.0
  1
DOVETAIL DESIGNS
  0
LINE
  8
TEXT
 10
38.5
 11
38.5
 20
110.137861
 21
110.571194
  0
LINE
  8
TEXT
 10
38.0
 11
38.0
 20
110.793416
 21
110.12675
  0
LINE
  8
TEXT
 10
38.0
 11
39.0
 20
110.12675
 21
110.12675
  0
LINE
  8
TEXT
 10
38.0
 11
39.0
 20
111.129109
 21
111.129109
  0
LINE
  8
TEXT
 10
39.000239
 11
39.0
 20
110.89345
 21
111.129109
  0
LINE
  8
TEXT
 10
39.0
 11
39.000239
 20
111.129109
 21
111.364768
  0
LINE
  8
TEXT
 10
38.000239
 11
38.0
 20
110.89345
 21
111.129109
  0
LINE
  8
TEXT
 10
38.0
 11
38.000239
 20
111.129109
 21
111.364768
  0
LINE
  8
TEXT
 10
39.0
 11
38.0
 20
111.564735
 21
111.564735
  0
LINE
  8
TEXT
 10
38.0
 11
38.0
 20
111.564735
 21
111.62029
  0
LINE
  8
TEXT
 10
38.0
 11
39.0
 20
111.62029
 21
112.175846
  0
LINE
  8
TEXT
 10
39.0
 11
39.0
 20
112.175846
 21
112.231402
  0
LINE
  8
TEXT
 10
39.0
 11
38.0
 20
112.231402
 21
112.231402
  0
LINE
  8
TEXT
 10
38.0
 11
39.0
 20
112.667095
 21
112.667095
  0
LINE
  8
TEXT
 10
39.000239
 11
39.0
 20
112.431435
 21
112.667095
  0
LINE
  8
TEXT
 10
39.0
 11
39.000239
 20
112.667095
 21
112.902754
  0
LINE
  8
TEXT
 10
38.000239
 11
38.0
 20
112.431435
 21
112.667095
  0
LINE
  8
TEXT
 10
38.0
 11
38.000239
 20
112.667095
 21
112.902754
  0
ARC
  8
TEXT
 10
38.393348
 20
113.430438
 40
0.411044
 50
132.9037
 51
212.5462
  0
ARC
  8
TEXT
 10
38.222825
 20
113.324925
 40
0.210556
 50
213.306702
 51
343.425563
  0
LINE
  8
TEXT
 10
38.424632
 11
38.535748
 20
113.264862
 21
113.598194
  0
ARC
  8
TEXT
 10
38.751049
 20
113.530326
 40
0.225744
 50
29.837943
 51
162.503854
  0
ARC
  8
TEXT
 10
38.571213
 20
113.425987
 40
0.433656
 50
330.02251
 51
29.973977
  0
ARC
  8
TEXT
 10
38.739354
 20
113.327878
 40
0.238989
 50
299.759272
 51
330.255342
  0
LINE
  8
TEXT
 10
38.466667
 11
38.466667
 20
113.955532
 21
114.655532
  0
LINE
  8
TEXT
 10
38.0
 11
39.0
 20
114.666643
 21
114.666643
  0
LINE
  8
TEXT
 10
38.0
 11
39.0
 20
113.944421
 21
113.944421
  0
LINE
  8
TEXT
 10
38.0
 11
38.0
 20
115.53331
 21
114.866643
  0
LINE
  8
TEXT
 10
38.0
 11
39.0
 20
114.866643
 21
114.866643
  0
LINE
  8
TEXT
 10
39.0
 11
39.0
 20
114.866643
 21
115.53331
  0
LINE
  8
TEXT
 10
38.466667
 11
38.466667
 20
114.877754
 21
115.311087
  0
ARC
  8
TEXT
 10
38.326311
 20
116.023143
 40
0.326311
 50
128.7145
 51
180.1655
  0
LINE
  8
TEXT
 10
38.000001
 11
38.0
 20
116.0222
 21
115.73331
  0
LINE
  8
TEXT
 10
38.0
 11
39.0
 20
115.73331
 21
115.73331
  0
LINE
  8
TEXT
 10
39.0
 11
39.0
 20
115.73331
 21
116.022199
  0
ARC
  8
TEXT
 10
38.67369
 20
116.023142
 40
0.326311
 50
359.83436
 51
51.285807
  0
ARC
  8
TEXT
 10
38.5
 20
115.811602
 40
0.600011
 50
50.978158
 51
129.021842
  0
LINE
  8
TEXT
 10
38.0
 11
38.0
 20
118.12828
 21
117.461613
  0
LINE
  8
TEXT
 10
38.0
 11
39.0
 20
117.461613
 21
117.461613
  0
LINE
  8
TEXT
 10
39.0
 11
39.0
 20
117.461613
 21
118.12828
  0
LINE
  8
TEXT
 10
38.466667
 11
38.466667
 20
117.472724
 21
117.906058
  0
LINE
  8
TEXT
 10
39.0
 11
38.0
 20
118.32828
 21
118.32828
  0
LINE
  8
TEXT
 10
38.0
 11
38.0
 20
118.32828
 21
118.383836
  0
LINE
  8
TEXT
 10
38.0
 11
39.0
 20
118.383836
 21
118.939391
  0
LINE
  8
TEXT
 10
39.0
 11
39.0
 20
118.939391
 21
118.994947
  0
LINE
  8
TEXT
 10
39.0
 11
38.0
 20
118.994947
 21
118.994947
  0
ARC
  8
TEXT
 10
38.326311
 20
119.48478
 40
0.326311
 50
128.7145
 51
180.1655
  0
LINE
  8
TEXT
 10
38.000001
 11
38.0
 20
119.483838
 21
119.194947
  0
LINE
  8
TEXT
 10
38.0
 11
39.0
 20
119.194947
 21
119.194947
  0
LINE
  8
TEXT
 10
39.0
 11
39.0
 20
119.194947
 21
119.483836
  0
ARC
  8
TEXT
 10
38.67369
 20
119.484779
 40
0.326311
 50
359.83436
 51
51.285807
  0
ARC
  8
TEXT
 10
38.5
 20
119.273239
 40
0.600011
 50
50.978158
 51
129.021842
  0
LINE
  8
TEXT
 10
-2.009492
 11
-2.676159
 20
120.741491
 21
120.741491
  0
ARC
  8
TEXT
 10
-2.676159
 20
120.408157
 40
0.333333
 50
90.0
 51
270.0
  0
LINE
  8
TEXT
 10
-2.676159
 11
-2.009492
 20
120.074824
 21
120.074824
  0
LINE
  8
TEXT
 10
-3.0
 11
-2.0
 20
119.87325
 21
119.87325
  0
LINE
  8
TEXT
 10
-2.0
 11
-2.0
 20
119.87325
 21
119.817695
  0
LINE
  8
TEXT
 10
-2.0
 11
-3.0
 20
119.817695
 21
119.262139
  0
LINE
  8
TEXT
 10
-3.0
 11
-3.0
 20
119.262139
 21
119.206584
  0
LINE
  8
TEXT
 10
-3.0
 11
-2.0
 20
119.206584
 21
119.206584
  0
LINE
  8
TEXT
 10
-2.5
 11
-2.5
 20
118.995473
 21
118.562139
  0
LINE
  8
TEXT
 10
-2.0
 11
-2.0
 20
118.339917
 21
119.006584
  0
LINE
  8
TEXT
 10
-2.0
 11
-3.0
 20
119.006584
 21
119.006584
  0
LINE
  8
TEXT
 10
-2.0
 11
-3.0
 20
118.004224
 21
118.004224
  0
LINE
  8
TEXT
 10
-3.000239
 11
-3.0
 20
118.239883
 21
118.004224
  0
LINE
  8
TEXT
 10
-3.0
 11
-3.000239
 20
118.004224
 21
117.768565
  0
LINE
  8
TEXT
 10
-2.000239
 11
-2.0
 20
118.239883
 21
118.004224
  0
LINE
  8
TEXT
 10
-2.0
 11
-2.000239
 20
118.004224
 21
117.768565
  0
LINE
  8
TEXT
 10
-3.0
 11
-2.0
 20
117.568598
 21
117.568598
  0
LINE
  8
TEXT
 10
-2.0
 11
-2.0
 20
117.568598
 21
117.513043
  0
LINE
  8
TEXT
 10
-2.0
 11
-3.0
 20
117.513043
 21
116.957487
  0
LINE
  8
TEXT
 10
-3.0
 11
-3.0
 20
116.957487
 21
116.901932
  0
LINE
  8
TEXT
 10
-3.0
 11
-2.0
 20
116.901932
 21
116.901932
  0
LINE
  8
TEXT
 10
-2.0
 11
-3.0
 20
116.466239
 21
116.466239
  0
LINE
  8
TEXT
 10
-3.000239
 11
-3.0
 20
116.701898
 21
116.466239
  0
LINE
  8
TEXT
 10
-3.0
 11
-3.000239
 20
116.466239
 21
116.230579
  0
LINE
  8
TEXT
 10
-2.000239
 11
-2.0
 20
116.701898
 21
116.466239
  0
LINE
  8
TEXT
 10
-2.0
 11
-2.000239
 20
116.466239
 21
116.230579
  0
ARC
  8
TEXT
 10
-2.393348
 20
115.702895
 40
0.411044
 50
312.9037
 51
32.5462
  0
ARC
  8
TEXT
 10
-2.222825
 20
115.808408
 40
0.210556
 50
33.306702
 51
163.425563
  0
LINE
  8
TEXT
 10
-2.424632
 11
-2.535748
 20
115.868471
 21
115.53514
  0
ARC
  8
TEXT
 10
-2.751049
 20
115.603008
 40
0.225744
 50
209.837943
 51
342.503854
  0
ARC
  8
TEXT
 10
-2.571213
 20
115.707346
 40
0.433656
 50
150.02251
 51
209.973977
  0
ARC
  8
TEXT
 10
-2.739354
 20
115.805455
 40
0.238989
 50
119.759272
 51
150.255342
  0
LINE
  8
TEXT
 10
-2.466667
 11
-2.466667
 20
115.177802
 21
114.477801
  0
LINE
  8
TEXT
 10
-2.0
 11
-3.0
 20
114.46669
 21
114.46669
  0
LINE
  8
TEXT
 10
-2.0
 11
-3.0
 20
115.188913
 21
115.188913
  0
LINE
  8
TEXT
 10
-2.0
 11
-2.0
 20
113.600024
 21
114.26669
  0
LINE
  8
TEXT
 10
-2.0
 11
-3.0
 20
114.26669
 21
114.26669
  0
LINE
  8
TEXT
 10
-3.0
 11
-3.0
 20
114.26669
 21
113.600024
  0
LINE
  8
TEXT
 10
-2.466667
 11
-2.466667
 20
114.255579
 21
113.822246
  0
ARC
  8
TEXT
 10
-2.326311
 20
113.11019
 40
0.326311
 50
308.7145
 51
0.1655
  0
LINE
  8
TEXT
 10
-2.000001
 11
-2.0
 20
113.111133
 21
113.400024
  0
LINE
  8
TEXT
 10
-2.0
 11
-3.0
 20
113.400024
 21
113.400024
  0
LINE
  8
TEXT
 10
-3.0
 11
-3.0
 20
113.400024
 21
113.111135
  0
ARC
  8
TEXT
 10
-2.67369
 20
113.110191
 40
0.326311
 50
179.83436
 51
231.285807
  0
ARC
  8
TEXT
 10
-2.5
 20
113.321731
 40
0.600011
 50
230.978158
 51
309.021842
  0
LINE
  8
TEXT
 10
-2.0
 11
-2.0
 20
111.005053
 21
111.67172
  0
LINE
  8
TEXT
 10
-2.0
 11
-3.0
 20
111.67172
 21
111.67172
  0
LINE
  8
TEXT
 10
-3.0
 11
-3.0
 20
111.67172
 21
111.005053
  0
LINE
  8
TEXT
 10
-2.466667
 11
-2.466667
 20
111.660609
 21
111.227275
  0
LINE
  8
TEXT
 10
-3.0
 11
-2.0
 20
110.805053
 21
110.805053
  0
LINE
  8
TEXT
 10
-2.0
 11
-2.0
 20
110.805053
 21
110.749498
  0
LINE
  8
TEXT
 10
-2.0
 11
-3.0
 20
110.749498
 21
110.193942
  0
LINE
  8
TEXT
 10
-3.0
 11
-3.0
 20
110.193942
 21
110.138387
  0
LINE
  8
TEXT
 10
-3.0
 11
-2.0
 20
110.138387
 21
110.138387
  0
ARC
  8
TEXT
 10
-2.326311
 20
109.648553
 40
0.326311
 50
308.7145
 51
0.1655
  0
LINE
  8
TEXT
 10
-2.000001
 11
-2.0
 20
109.649496
 21
109.938387
  0
LINE
  8
TEXT
 10
-2.0
 11
-3.0
 20
109.938387
 21
109.938387
  0
LINE
  8
TEXT
 10
-3.0
 11
-3.0
 20
109.938387
 21
109.649498
  0
ARC
  8
TEXT
 10
-2.67369
 20
109.648554
 40
0.326311
 50
179.83436
 51
231.285807
  0
ARC
  8
TEXT
 10
-2.5
 20
109.860094
 40
0.600011
 50
230.978158
 51
309.021842
  0
TEXT
  8
TEXT
 10
18.0
 20
131.5
 30
0.0
 40
1.0
 50
0.0
  1
CABINETS EXCEEDING 36" WIDE
  0
TEXT
  8
TEXT
 10
18.0
 20
130.0
 30
0.0
 40
1.0
 50
0.0
  1
WILL NEED A PARTITION
  0
ENDSEC
  0
EOF
