  0
SECTION
  2
ENTITIES
  0
ARC
  8
APS_GEOMETRY
 10
0.860723
 20
2.875375
 40
0.25
 50
282.326917
 51
305.358108
  0
LINE
  8
APS_GEOMETRY
 10
1.005394
 11
1.429158
 20
2.671487
 21
2.972174
  0
ARC
  8
APS_GEOMETRY
 10
1.501493
 20
2.87023
 40
0.125
 50
54.642025
 51
125.357888
  0
LINE
  8
APS_GEOMETRY
 10
1.573829
 11
1.997592
 20
2.972174
 21
2.671487
  0
ARC
  8
APS_GEOMETRY
 10
2.142262
 20
2.875375
 40
0.25
 50
234.64211
 51
257.673439
  0
LINE
  8
APS_GEOMETRY
 10
2.088892
 11
2.688993
 20
2.631139
 21
2.5
  0
ARC
  8
APS_GEOMETRY
 10
2.688993
 20
2.1875
 40
0.3125
 50
270.0
 51
90.0
  0
ARC
  8
APS_GEOMETRY
 10
2.923615
 20
1.235473
 40
0.681206
 50
110.14648
 51
171.666221
  0
ARC
  8
APS_GEOMETRY
 10
2.494652
 20
1.284706
 40
0.25
 50
168.579779
 51
237.085092
  0
ARC
  8
APS_GEOMETRY
 10
2.331979
 20
0.984031
 40
0.094685
 50
280.706751
 51
73.542304
  0
ARC
  8
APS_GEOMETRY
 10
2.432035
 20
0.831866
 40
0.101472
 50
144.359079
 51
206.65146
  0
ARC
  8
APS_GEOMETRY
 10
2.768449
 20
1.050157
 40
0.502009
 50
211.702143
 51
251.374623
  0
ARC
  8
APS_GEOMETRY
 10
2.4377
 20
0.312497
 40
0.3125
 50
270.236974
 51
56.952385
  0
LINE
  8
APS_GEOMETRY
 10
2.438993
 11
0.561014
 20
0.0
 21
0.0
  0
ARC
  8
APS_GEOMETRY
 10
0.561014
 20
0.3125
 40
0.3125
 50
122.915058
 51
270.0
  0
ARC
  8
APS_GEOMETRY
 10
0.232048
 20
1.050949
 40
0.502009
 50
288.483813
 51
328.19171
  0
ARC
  8
APS_GEOMETRY
 10
0.567972
 20
0.831866
 40
0.101472
 50
333.349074
 51
35.640636
  0
ARC
  8
APS_GEOMETRY
 10
0.668026
 20
0.984031
 40
0.094685
 50
106.456884
 51
259.294171
  0
ARC
  8
APS_GEOMETRY
 10
0.505354
 20
1.284706
 40
0.25
 50
302.915041
 51
11.42031
  0
ARC
  8
APS_GEOMETRY
 10
0.076391
 20
1.235474
 40
0.681206
 50
8.333708
 51
69.853439
  0
ARC
  8
APS_GEOMETRY
 10
0.313026
 20
2.187498
 40
0.312504
 50
89.822567
 51
269.631152
  0
LINE
  8
APS_GEOMETRY
 10
0.313994
 11
0.914095
 20
2.5
 21
2.631139
  0
LINE
  8
CONSTRUCTION
 10
0.152615
 11
0.10065
 20
-1.038482
 21
-1.166909
  0
LINE
  8
CONSTRUCTION
 10
0.10065
 11
0.20458
 20
-1.166909
 21
-1.166909
  0
LINE
  8
CONSTRUCTION
 10
0.20458
 11
0.152615
 20
-1.166909
 21
-1.038482
  0
LINE
  8
CONSTRUCTION
 10
0.152615
 11
0.559547
 20
-1.038482
 21
-1.03848
  0
LINE
  8
CONSTRUCTION
 10
0.559547
 11
0.507582
 20
-1.03848
 21
-1.166908
  0
LINE
  8
CONSTRUCTION
 10
0.507582
 11
0.611512
 20
-1.166908
 21
-1.166908
  0
LINE
  8
CONSTRUCTION
 10
0.611512
 11
0.559547
 20
-1.166908
 21
-1.03848
  0
LINE
  8
CONSTRUCTION
 10
0.559547
 11
0.966478
 20
-1.03848
 21
-1.03848
  0
LINE
  8
CONSTRUCTION
 10
0.966478
 11
0.914513
 20
-1.03848
 21
-1.166908
  0
LINE
  8
CONSTRUCTION
 10
0.914513
 11
1.018442
 20
-1.166908
 21
-1.166908
  0
LINE
  8
CONSTRUCTION
 10
1.018442
 11
0.966478
 20
-1.166908
 21
-1.03848
  0
LINE
  8
CONSTRUCTION
 10
0.966478
 11
1.373408
 20
-1.03848
 21
-1.03848
  0
LINE
  8
CONSTRUCTION
 10
1.373408
 11
1.321443
 20
-1.03848
 21
-1.166908
  0
LINE
  8
CONSTRUCTION
 10
1.321443
 11
1.425373
 20
-1.166908
 21
-1.166908
  0
LINE
  8
CONSTRUCTION
 10
1.425373
 11
1.373408
 20
-1.166908
 21
-1.03848
  0
LINE
  8
CONSTRUCTION
 10
1.373408
 11
1.780281
 20
-1.03848
 21
-1.038482
  0
LINE
  8
CONSTRUCTION
 10
1.780281
 11
1.728316
 20
-1.038482
 21
-1.166909
  0
LINE
  8
CONSTRUCTION
 10
1.728316
 11
1.832246
 20
-1.166909
 21
-1.166909
  0
LINE
  8
CONSTRUCTION
 10
1.832246
 11
1.780281
 20
-1.166909
 21
-1.038482
  0
LINE
  8
CONSTRUCTION
 10
0.0
 11
4.0
 20
-1.561751
 21
-1.561751
  0
TEXT
  8
TEXT
 10
0.10065
 20
-1.405784
 30
0.0
 40
0.224
 50
0.0
  1
DOVETAIL DESIGNS
  0
TEXT
  8
TEXT
 10
2.276036
 20
-1.551751
 30
0.0
 40
0.099
 50
0.0
  1
& MILLWORK INC.
  0
TEXT
  8
TEXT
 10
1.092458
 20
-1.640461
 30
0.0
 40
0.07
 50
0.0
  1
Established 1979
  0
TEXT
  8
TEXT
 10
0.1
 20
-1.8
 30
0.0
 40
0.1
 50
0.0
  1
Phone: (406) 248-5010    Website: www.dovetailmt.com
  0
TEXT
  8
TEXT
 10
0.0
 20
-0.5
 30
0.0
 40
0.1
 50
0.0
  1
3"x3"
  0
TEXT
  8
TEXT
 10
0.0
 20
-0.25
 30
0.0
 40
0.15625
 50
0.0
  1
HR46
  0
ENDSEC
  0
EOF
