  0
SECTION
  2
ENTITIES
  0
ARC
  8
APS_GEOMETRY
 10
2.3125
 20
0.0625
 40
0.0625
 50
270.0
 51
0.0
  0
LINE
  8
APS_GEOMETRY
 10
2.375
 11
2.375
 20
0.0625
 21
0.423197
  0
ARC
  8
APS_GEOMETRY
 10
2.5
 20
0.423197
 40
0.125
 50
135.0
 51
180.0
  0
LINE
  8
APS_GEOMETRY
 10
2.411612
 11
2.463388
 20
0.511585
 21
0.563362
  0
ARC
  8
APS_GEOMETRY
 10
2.375
 20
0.651751
 40
0.125
 50
314.999775
 51
359.999681
  0
LINE
  8
APS_GEOMETRY
 10
2.5
 11
2.5
 20
0.65175
 21
0.874973
  0
ARC
  8
APS_GEOMETRY
 10
2.375
 20
0.874973
 40
0.125
 50
0.0
 51
90.0
  0
LINE
  8
APS_GEOMETRY
 10
2.375
 11
0.125
 20
0.999973
 21
0.999973
  0
ARC
  8
APS_GEOMETRY
 10
0.125
 20
0.874973
 40
0.125
 50
90.0
 51
180.0
  0
LINE
  8
APS_GEOMETRY
 10
0.0
 11
0.0
 20
0.874973
 21
0.65175
  0
ARC
  8
APS_GEOMETRY
 10
0.125
 20
0.65175
 40
0.125
 50
180.0
 51
225.0
  0
LINE
  8
APS_GEOMETRY
 10
0.036612
 11
0.088388
 20
0.563362
 21
0.511585
  0
ARC
  8
APS_GEOMETRY
 10
0.0
 20
0.423196
 40
0.125
 50
0.000319
 51
45.000225
  0
LINE
  8
APS_GEOMETRY
 10
0.125
 11
0.125
 20
0.423197
 21
0.0625
  0
ARC
  8
APS_GEOMETRY
 10
0.1875
 20
0.0625
 40
0.0625
 50
180.0
 51
270.0
  0
LINE
  8
APS_GEOMETRY
 10
0.1875
 11
2.3125
 20
0.0
 21
0.0
  0
LINE
  8
CONSTRUCTION
 10
0.152615
 11
0.10065
 20
-1.038482
 21
-1.166909
  0
LINE
  8
CONSTRUCTION
 10
0.10065
 11
0.20458
 20
-1.166909
 21
-1.166909
  0
LINE
  8
CONSTRUCTION
 10
0.20458
 11
0.152615
 20
-1.166909
 21
-1.038482
  0
LINE
  8
CONSTRUCTION
 10
0.152615
 11
0.559547
 20
-1.038482
 21
-1.03848
  0
LINE
  8
CONSTRUCTION
 10
0.559547
 11
0.507582
 20
-1.03848
 21
-1.166908
  0
LINE
  8
CONSTRUCTION
 10
0.507582
 11
0.611512
 20
-1.166908
 21
-1.166908
  0
LINE
  8
CONSTRUCTION
 10
0.611512
 11
0.559547
 20
-1.166908
 21
-1.03848
  0
LINE
  8
CONSTRUCTION
 10
0.559547
 11
0.966478
 20
-1.03848
 21
-1.03848
  0
LINE
  8
CONSTRUCTION
 10
0.966478
 11
0.914513
 20
-1.03848
 21
-1.166908
  0
LINE
  8
CONSTRUCTION
 10
0.914513
 11
1.018442
 20
-1.166908
 21
-1.166908
  0
LINE
  8
CONSTRUCTION
 10
1.018442
 11
0.966478
 20
-1.166908
 21
-1.03848
  0
LINE
  8
CONSTRUCTION
 10
0.966478
 11
1.373408
 20
-1.03848
 21
-1.03848
  0
LINE
  8
CONSTRUCTION
 10
1.373408
 11
1.321443
 20
-1.03848
 21
-1.166908
  0
LINE
  8
CONSTRUCTION
 10
1.321443
 11
1.425373
 20
-1.166908
 21
-1.166908
  0
LINE
  8
CONSTRUCTION
 10
1.425373
 11
1.373408
 20
-1.166908
 21
-1.03848
  0
LINE
  8
CONSTRUCTION
 10
1.373408
 11
1.780281
 20
-1.03848
 21
-1.038482
  0
LINE
  8
CONSTRUCTION
 10
1.780281
 11
1.728316
 20
-1.038482
 21
-1.166909
  0
LINE
  8
CONSTRUCTION
 10
1.728316
 11
1.832246
 20
-1.166909
 21
-1.166909
  0
LINE
  8
CONSTRUCTION
 10
1.832246
 11
1.780281
 20
-1.166909
 21
-1.038482
  0
LINE
  8
CONSTRUCTION
 10
0.0
 11
4.0
 20
-1.561751
 21
-1.561751
  0
TEXT
  8
TEXT
 10
0.10065
 20
-1.405784
 30
0.0
 40
0.224
 50
0.0
  1
DOVETAIL DESIGNS
  0
TEXT
  8
TEXT
 10
2.276036
 20
-1.551751
 30
0.0
 40
0.099
 50
0.0
  1
& MILLWORK INC.
  0
TEXT
  8
TEXT
 10
1.092458
 20
-1.640461
 30
0.0
 40
0.07
 50
0.0
  1
Established 1979
  0
TEXT
  8
TEXT
 10
0.1
 20
-1.8
 30
0.0
 40
0.1
 50
0.0
  1
Phone: (406) 248-5010    Website: www.dovetailmt.com
  0
TEXT
  8
TEXT
 10
0.0
 20
-0.5
 30
0.0
 40
0.1
 50
0.0
  1
2-1/2"x1"
  0
TEXT
  8
TEXT
 10
0.0
 20
-0.25
 30
0.0
 40
0.15625
 50
0.0
  1
HR43
  0
ENDSEC
  0
EOF
