  0
SECTION
  2
ENTITIES
  0
ARC
  8
APS_GEOMETRY
 10
2.246406
 20
0.25
 40
0.25
 50
270.0
 51
90.0
  0
LINE
  8
APS_GEOMETRY
 10
2.246406
 11
2.246406
 20
0.5
 21
0.625
  0
ARC
  8
APS_GEOMETRY
 10
2.628873
 20
0.854128
 40
0.445848
 50
150.492814
 51
210.925001
  0
ARC
  8
APS_GEOMETRY
 10
3.348786
 20
0.446702
 40
1.273055
 50
133.757044
 51
150.492827
  0
ARC
  8
APS_GEOMETRY
 10
1.802584
 20
2.061486
 40
0.962626
 50
313.757131
 51
341.355774
  0
ARC
  8
APS_GEOMETRY
 10
2.206988
 20
1.925042
 40
0.535824
 50
341.355768
 51
72.353229
  0
LINE
  8
APS_GEOMETRY
 10
2.369422
 11
2.369417
 20
2.435652
 21
2.46617
  0
ARC
  8
APS_GEOMETRY
 10
2.306917
 20
2.466159
 40
0.0625
 50
0.010025
 51
90.184606
  0
ARC
  8
APS_GEOMETRY
 10
2.295965
 20
5.866329
 40
3.337688
 50
257.78279
 51
270.18455
  0
ARC
  8
APS_GEOMETRY
 10
1.393201
 20
1.696941
 40
0.928315
 50
77.782846
 51
91.345315
  0
ARC
  8
APS_GEOMETRY
 10
1.349611
 20
1.696941
 40
0.928315
 50
88.654673
 51
102.217161
  0
ARC
  8
APS_GEOMETRY
 10
0.44685
 20
5.86633
 40
3.337688
 50
269.81539
 51
282.217156
  0
ARC
  8
APS_GEOMETRY
 10
0.435895
 20
2.46616
 40
0.0625
 50
89.815694
 51
179.990569
  0
LINE
  8
APS_GEOMETRY
 10
0.373395
 11
0.373389
 20
2.46617
 21
2.435653
  0
ARC
  8
APS_GEOMETRY
 10
0.535824
 20
1.925043
 40
0.535824
 50
107.646847
 51
198.644407
  0
ARC
  8
APS_GEOMETRY
 10
0.940228
 20
2.061487
 40
0.962626
 50
198.644259
 51
226.242874
  0
ARC
  8
APS_GEOMETRY
 10
-0.605976
 20
0.446704
 40
1.273055
 50
29.507022
 51
46.242852
  0
ARC
  8
APS_GEOMETRY
 10
0.113939
 20
0.854129
 40
0.445848
 50
329.075053
 51
29.507008
  0
LINE
  8
APS_GEOMETRY
 10
0.496406
 11
0.496406
 20
0.625001
 21
0.5
  0
ARC
  8
APS_GEOMETRY
 10
0.496406
 20
0.25
 40
0.25
 50
90.0
 51
270.0
  0
LINE
  8
APS_GEOMETRY
 10
0.496406
 11
0.746438
 20
0.0
 21
0.0
  0
LINE
  8
APS_GEOMETRY
 10
0.746438
 11
0.746438
 20
0.0
 21
0.249965
  0
LINE
  8
APS_GEOMETRY
 10
0.746438
 11
1.996438
 20
0.249965
 21
0.25
  0
LINE
  8
APS_GEOMETRY
 10
1.996438
 11
1.996438
 20
0.25
 21
0.0
  0
LINE
  8
APS_GEOMETRY
 10
1.996438
 11
2.246406
 20
0.0
 21
0.0
  0
LINE
  8
CONSTRUCTION
 10
0.152615
 11
0.10065
 20
-1.038482
 21
-1.166909
  0
LINE
  8
CONSTRUCTION
 10
0.10065
 11
0.20458
 20
-1.166909
 21
-1.166909
  0
LINE
  8
CONSTRUCTION
 10
0.20458
 11
0.152615
 20
-1.166909
 21
-1.038482
  0
LINE
  8
CONSTRUCTION
 10
0.152615
 11
0.559547
 20
-1.038482
 21
-1.03848
  0
LINE
  8
CONSTRUCTION
 10
0.559547
 11
0.507582
 20
-1.03848
 21
-1.166908
  0
LINE
  8
CONSTRUCTION
 10
0.507582
 11
0.611512
 20
-1.166908
 21
-1.166908
  0
LINE
  8
CONSTRUCTION
 10
0.611512
 11
0.559547
 20
-1.166908
 21
-1.03848
  0
LINE
  8
CONSTRUCTION
 10
0.559547
 11
0.966478
 20
-1.03848
 21
-1.03848
  0
LINE
  8
CONSTRUCTION
 10
0.966478
 11
0.914513
 20
-1.03848
 21
-1.166908
  0
LINE
  8
CONSTRUCTION
 10
0.914513
 11
1.018442
 20
-1.166908
 21
-1.166908
  0
LINE
  8
CONSTRUCTION
 10
1.018442
 11
0.966478
 20
-1.166908
 21
-1.03848
  0
LINE
  8
CONSTRUCTION
 10
0.966478
 11
1.373408
 20
-1.03848
 21
-1.03848
  0
LINE
  8
CONSTRUCTION
 10
1.373408
 11
1.321443
 20
-1.03848
 21
-1.166908
  0
LINE
  8
CONSTRUCTION
 10
1.321443
 11
1.425373
 20
-1.166908
 21
-1.166908
  0
LINE
  8
CONSTRUCTION
 10
1.425373
 11
1.373408
 20
-1.166908
 21
-1.03848
  0
LINE
  8
CONSTRUCTION
 10
1.373408
 11
1.780281
 20
-1.03848
 21
-1.038482
  0
LINE
  8
CONSTRUCTION
 10
1.780281
 11
1.728316
 20
-1.038482
 21
-1.166909
  0
LINE
  8
CONSTRUCTION
 10
1.728316
 11
1.832246
 20
-1.166909
 21
-1.166909
  0
LINE
  8
CONSTRUCTION
 10
1.832246
 11
1.780281
 20
-1.166909
 21
-1.038482
  0
LINE
  8
CONSTRUCTION
 10
0.0
 11
4.0
 20
-1.561751
 21
-1.561751
  0
TEXT
  8
TEXT
 10
0.10065
 20
-1.405784
 30
0.0
 40
0.224
 50
0.0
  1
DOVETAIL DESIGNS
  0
TEXT
  8
TEXT
 10
2.276036
 20
-1.551751
 30
0.0
 40
0.099
 50
0.0
  1
& MILLWORK INC.
  0
TEXT
  8
TEXT
 10
1.092458
 20
-1.640461
 30
0.0
 40
0.07
 50
0.0
  1
Established 1979
  0
TEXT
  8
TEXT
 10
0.1
 20
-1.8
 30
0.0
 40
0.1
 50
0.0
  1
Phone: (406) 248-5010    Website: www.dovetailmt.com
  0
TEXT
  8
TEXT
 10
0.0
 20
-0.25
 30
0.0
 40
0.15625
 50
0.0
  1
HR42
  0
TEXT
  8
TEXT
 10
0.0
 20
-0.5
 30
0.0
 40
0.1
 50
0.0
  1
2-3/4"x2-5/8"
  0
ENDSEC
  0
EOF
