  0
SECTION
  2
ENTITIES
  0
ARC
  8
APS_GEOMETRY
 10
2.664453
 20
0.0
 40
0.211328
 50
129.07331
 51
180.0
  0
LINE
  8
APS_GEOMETRY
 10
2.453125
 11
0.609375
 20
0.0
 21
0.0
  0
ARC
  8
APS_GEOMETRY
 10
0.398047
 20
0.0
 40
0.211328
 50
0.0
 51
50.92669
  0
ARC
  8
APS_GEOMETRY
 10
0.664453
 20
0.328125
 40
0.211328
 50
179.999968
 51
230.926723
  0
LINE
  8
APS_GEOMETRY
 10
0.453125
 11
0.375
 20
0.328125
 21
0.328125
  0
LINE
  8
APS_GEOMETRY
 10
0.375
 11
0.375
 20
0.328125
 21
1.053391
  0
ARC
  8
APS_GEOMETRY
 10
0.203125
 20
1.053391
 40
0.171875
 50
0.0
 51
74.17338
  0
LINE
  8
APS_GEOMETRY
 10
0.25
 11
0.234375
 20
1.21875
 21
1.40625
  0
ARC
  8
APS_GEOMETRY
 10
0.28125
 20
1.683566
 40
0.28125
 50
180.000049
 51
260.405932
  0
LINE
  8
APS_GEOMETRY
 10
0.0
 11
0.0
 20
1.683566
 21
1.704616
  0
ARC
  8
APS_GEOMETRY
 10
0.328125
 20
1.704616
 40
0.328125
 50
95.465024
 51
180.0
  0
LINE
  8
APS_GEOMETRY
 10
0.296875
 11
0.296875
 20
2.03125
 21
2.078125
  0
ARC
  8
APS_GEOMETRY
 10
0.390625
 20
2.078125
 40
0.09375
 50
90.0
 51
180.0
  0
LINE
  8
APS_GEOMETRY
 10
0.390625
 11
0.409836
 20
2.171875
 21
2.171875
  0
ARC
  8
APS_GEOMETRY
 10
0.409836
 20
3.421875
 40
1.25
 50
270.0
 51
296.65168
  0
ARC
  8
APS_GEOMETRY
 10
1.53125
 20
1.1875
 40
1.25
 50
63.348309
 51
116.651692
  0
ARC
  8
APS_GEOMETRY
 10
2.652664
 20
3.421875
 40
1.25
 50
243.34832
 51
270.00002
  0
LINE
  8
APS_GEOMETRY
 10
2.652664
 11
2.671875
 20
2.171875
 21
2.171875
  0
ARC
  8
APS_GEOMETRY
 10
2.671875
 20
2.078125
 40
0.09375
 50
0.0
 51
90.0
  0
LINE
  8
APS_GEOMETRY
 10
2.765625
 11
2.765625
 20
2.078125
 21
2.03125
  0
ARC
  8
APS_GEOMETRY
 10
2.734375
 20
1.704616
 40
0.328125
 50
359.999915
 51
84.534976
  0
LINE
  8
APS_GEOMETRY
 10
3.0625
 11
3.0625
 20
1.704616
 21
1.683566
  0
ARC
  8
APS_GEOMETRY
 10
2.78125
 20
1.683566
 40
0.28125
 50
279.594068
 51
0.0
  0
LINE
  8
APS_GEOMETRY
 10
2.828125
 11
2.8125
 20
1.40625
 21
1.21875
  0
ARC
  8
APS_GEOMETRY
 10
2.859375
 20
1.053391
 40
0.171875
 50
105.82662
 51
179.999848
  0
LINE
  8
APS_GEOMETRY
 10
2.6875
 11
2.6875
 20
1.053391
 21
0.328125
  0
LINE
  8
APS_GEOMETRY
 10
2.6875
 11
2.609375
 20
0.328125
 21
0.328125
  0
ARC
  8
APS_GEOMETRY
 10
2.398047
 20
0.328125
 40
0.211328
 50
309.073277
 51
0.000032
  0
LINE
  8
CONSTRUCTION
 10
0.152615
 11
0.10065
 20
-1.038482
 21
-1.166909
  0
LINE
  8
CONSTRUCTION
 10
0.10065
 11
0.20458
 20
-1.166909
 21
-1.166909
  0
LINE
  8
CONSTRUCTION
 10
0.20458
 11
0.152615
 20
-1.166909
 21
-1.038482
  0
LINE
  8
CONSTRUCTION
 10
0.152615
 11
0.559547
 20
-1.038482
 21
-1.03848
  0
LINE
  8
CONSTRUCTION
 10
0.559547
 11
0.507582
 20
-1.03848
 21
-1.166908
  0
LINE
  8
CONSTRUCTION
 10
0.507582
 11
0.611512
 20
-1.166908
 21
-1.166908
  0
LINE
  8
CONSTRUCTION
 10
0.611512
 11
0.559547
 20
-1.166908
 21
-1.03848
  0
LINE
  8
CONSTRUCTION
 10
0.559547
 11
0.966478
 20
-1.03848
 21
-1.03848
  0
LINE
  8
CONSTRUCTION
 10
0.966478
 11
0.914513
 20
-1.03848
 21
-1.166908
  0
LINE
  8
CONSTRUCTION
 10
0.914513
 11
1.018442
 20
-1.166908
 21
-1.166908
  0
LINE
  8
CONSTRUCTION
 10
1.018442
 11
0.966478
 20
-1.166908
 21
-1.03848
  0
LINE
  8
CONSTRUCTION
 10
0.966478
 11
1.373408
 20
-1.03848
 21
-1.03848
  0
LINE
  8
CONSTRUCTION
 10
1.373408
 11
1.321443
 20
-1.03848
 21
-1.166908
  0
LINE
  8
CONSTRUCTION
 10
1.321443
 11
1.425373
 20
-1.166908
 21
-1.166908
  0
LINE
  8
CONSTRUCTION
 10
1.425373
 11
1.373408
 20
-1.166908
 21
-1.03848
  0
LINE
  8
CONSTRUCTION
 10
1.373408
 11
1.780281
 20
-1.03848
 21
-1.038482
  0
LINE
  8
CONSTRUCTION
 10
1.780281
 11
1.728316
 20
-1.038482
 21
-1.166909
  0
LINE
  8
CONSTRUCTION
 10
1.728316
 11
1.832246
 20
-1.166909
 21
-1.166909
  0
LINE
  8
CONSTRUCTION
 10
1.832246
 11
1.780281
 20
-1.166909
 21
-1.038482
  0
LINE
  8
CONSTRUCTION
 10
0.0
 11
4.0
 20
-1.561751
 21
-1.561751
  0
TEXT
  8
TEXT
 10
0.10065
 20
-1.405784
 30
0.0
 40
0.224
 50
0.0
  1
DOVETAIL DESIGNS
  0
TEXT
  8
TEXT
 10
2.276036
 20
-1.551751
 30
0.0
 40
0.099
 50
0.0
  1
& MILLWORK INC.
  0
TEXT
  8
TEXT
 10
1.092458
 20
-1.640461
 30
0.0
 40
0.07
 50
0.0
  1
Established 1979
  0
TEXT
  8
TEXT
 10
0.1
 20
-1.8
 30
0.0
 40
0.1
 50
0.0
  1
Phone: (406) 248-5010    Website: www.dovetailmt.com
  0
TEXT
  8
TEXT
 10
0.0
 20
-0.25
 30
0.0
 40
0.15625
 50
0.0
  1
HR40
  0
TEXT
  8
TEXT
 10
0.0
 20
-0.5
 30
0.0
 40
0.1
 50
0.0
  1
3-1/16"x2-7/16"
  0
ENDSEC
  0
EOF
