  0
SECTION
  2
ENTITIES
  0
ARC
  8
APS_GEOMETRY
 10
0.125
 20
0.125
 40
0.125
 50
170.537678
 51
270.0
  0
LINE
  8
APS_GEOMETRY
 10
0.125
 11
0.227438
 20
0.0
 21
0.0
  0
LINE
  8
APS_GEOMETRY
 10
0.227438
 11
0.227438
 20
0.0
 21
0.499996
  0
LINE
  8
APS_GEOMETRY
 10
0.227438
 11
1.227428
 20
0.499996
 21
0.499996
  0
LINE
  8
APS_GEOMETRY
 10
1.227428
 11
1.227428
 20
0.499996
 21
0.0
  0
LINE
  8
APS_GEOMETRY
 10
1.227428
 11
1.329866
 20
0.0
 21
0.0
  0
ARC
  8
APS_GEOMETRY
 10
1.329866
 20
0.125
 40
0.125
 50
270.0
 51
9.462322
  0
LINE
  8
APS_GEOMETRY
 10
1.453165
 11
1.357527
 20
0.14555
 21
0.719375
  0
ARC
  8
APS_GEOMETRY
 10
1.480826
 20
0.739923
 40
0.125
 50
161.564122
 51
189.461656
  0
LINE
  8
APS_GEOMETRY
 10
1.362242
 11
1.44314
 20
0.779454
 21
1.022148
  0
ARC
  8
APS_GEOMETRY
 10
1.324555
 20
1.061677
 40
0.125
 50
341.564747
 51
63.43455
  0
LINE
  8
APS_GEOMETRY
 10
1.380457
 11
0.783335
 20
1.17348
 21
1.472045
  0
ARC
  8
APS_GEOMETRY
 10
0.727432
 20
1.360242
 40
0.125
 50
63.434411
 51
116.565033
  0
LINE
  8
APS_GEOMETRY
 10
0.671531
 11
0.074399
 20
1.472046
 21
1.173481
  0
ARC
  8
APS_GEOMETRY
 10
0.1303
 20
1.061677
 40
0.125
 50
116.564802
 51
198.4368
  0
LINE
  8
APS_GEOMETRY
 10
0.011716
 11
0.102442
 20
1.022145
 21
0.75
  0
LINE
  8
APS_GEOMETRY
 10
0.102442
 11
0.001701
 20
0.75
 21
0.14555
  0
LINE
  8
CONSTRUCTION
 10
0.152615
 11
0.10065
 20
-1.038482
 21
-1.166909
  0
LINE
  8
CONSTRUCTION
 10
0.10065
 11
0.20458
 20
-1.166909
 21
-1.166909
  0
LINE
  8
CONSTRUCTION
 10
0.20458
 11
0.152615
 20
-1.166909
 21
-1.038482
  0
LINE
  8
CONSTRUCTION
 10
0.152615
 11
0.559547
 20
-1.038482
 21
-1.03848
  0
LINE
  8
CONSTRUCTION
 10
0.559547
 11
0.507582
 20
-1.03848
 21
-1.166908
  0
LINE
  8
CONSTRUCTION
 10
0.507582
 11
0.611512
 20
-1.166908
 21
-1.166908
  0
LINE
  8
CONSTRUCTION
 10
0.611512
 11
0.559547
 20
-1.166908
 21
-1.03848
  0
LINE
  8
CONSTRUCTION
 10
0.559547
 11
0.966478
 20
-1.03848
 21
-1.03848
  0
LINE
  8
CONSTRUCTION
 10
0.966478
 11
0.914513
 20
-1.03848
 21
-1.166908
  0
LINE
  8
CONSTRUCTION
 10
0.914513
 11
1.018442
 20
-1.166908
 21
-1.166908
  0
LINE
  8
CONSTRUCTION
 10
1.018442
 11
0.966478
 20
-1.166908
 21
-1.03848
  0
LINE
  8
CONSTRUCTION
 10
0.966478
 11
1.373408
 20
-1.03848
 21
-1.03848
  0
LINE
  8
CONSTRUCTION
 10
1.373408
 11
1.321443
 20
-1.03848
 21
-1.166908
  0
LINE
  8
CONSTRUCTION
 10
1.321443
 11
1.425373
 20
-1.166908
 21
-1.166908
  0
LINE
  8
CONSTRUCTION
 10
1.425373
 11
1.373408
 20
-1.166908
 21
-1.03848
  0
LINE
  8
CONSTRUCTION
 10
1.373408
 11
1.780281
 20
-1.03848
 21
-1.038482
  0
LINE
  8
CONSTRUCTION
 10
1.780281
 11
1.728316
 20
-1.038482
 21
-1.166909
  0
LINE
  8
CONSTRUCTION
 10
1.728316
 11
1.832246
 20
-1.166909
 21
-1.166909
  0
LINE
  8
CONSTRUCTION
 10
1.832246
 11
1.780281
 20
-1.166909
 21
-1.038482
  0
LINE
  8
CONSTRUCTION
 10
0.0
 11
4.0
 20
-1.561751
 21
-1.561751
  0
TEXT
  8
TEXT
 10
0.10065
 20
-1.405784
 30
0.0
 40
0.224
 50
0.0
  1
DOVETAIL DESIGNS
  0
TEXT
  8
TEXT
 10
2.276036
 20
-1.551751
 30
0.0
 40
0.099
 50
0.0
  1
& MILLWORK INC.
  0
TEXT
  8
TEXT
 10
1.092458
 20
-1.640461
 30
0.0
 40
0.07
 50
0.0
  1
Established 1979
  0
TEXT
  8
TEXT
 10
0.1
 20
-1.8
 30
0.0
 40
0.1
 50
0.0
  1
Phone: (406) 248-5010    Website: www.dovetailmt.com
  0
TEXT
  8
TEXT
 10
0.0
 20
-0.25
 30
0.0
 40
0.15625
 50
0.0
  1
HR32
  0
TEXT
  8
TEXT
 10
0.0
 20
-0.5
 30
0.0
 40
0.1
 50
0.0
  1
1-29/64"x1-31/64"
  0
ENDSEC
  0
EOF
