  0
SECTION
  2
ENTITIES
  0
ARC
  8
MOULD-NEW
 10
2.03125
 20
0.0
 40
0.208333
 50
89.999957
 51
180.000043
  0
LINE
  8
MOULD-NEW
 10
1.822917
 11
0.489583
 20
0.0
 21
0.0
  0
ARC
  8
MOULD-NEW
 10
0.28125
 20
0.0
 40
0.208333
 50
0.0
 51
90.000043
  0
LINE
  8
MOULD-NEW
 10
0.28125
 11
0.28125
 20
0.208333
 21
0.328125
  0
ARC
  8
MOULD-NEW
 10
0.401149
 20
0.710938
 40
0.40115
 50
107.390847
 51
252.609162
  0
LINE
  8
MOULD-NEW
 10
0.28125
 11
0.28125
 20
1.09375
 21
1.171875
  0
ARC
  8
MOULD-NEW
 10
0.281248
 20
2.164968
 40
0.993093
 50
270.000115
 51
296.138651
  0
ARC
  8
MOULD-NEW
 10
1.156249
 20
0.381912
 40
0.993088
 50
63.861308
 51
116.13862
  0
ARC
  8
MOULD-NEW
 10
2.031251
 20
2.164968
 40
0.993093
 50
243.861421
 51
269.999965
  0
LINE
  8
MOULD-NEW
 10
2.03125
 11
2.03125
 20
1.171875
 21
1.09375
  0
ARC
  8
MOULD-NEW
 10
1.911349
 20
0.710938
 40
0.40115
 50
287.391086
 51
72.608923
  0
LINE
  8
MOULD-NEW
 10
2.03125
 11
2.03125
 20
0.328126
 21
0.208333
  0
LINE
  8
CONSTRUCTION
 10
0.152615
 11
0.10065
 20
-1.038482
 21
-1.166909
  0
LINE
  8
CONSTRUCTION
 10
0.10065
 11
0.20458
 20
-1.166909
 21
-1.166909
  0
LINE
  8
CONSTRUCTION
 10
0.20458
 11
0.152615
 20
-1.166909
 21
-1.038482
  0
LINE
  8
CONSTRUCTION
 10
0.152615
 11
0.559547
 20
-1.038482
 21
-1.03848
  0
LINE
  8
CONSTRUCTION
 10
0.559547
 11
0.507582
 20
-1.03848
 21
-1.166908
  0
LINE
  8
CONSTRUCTION
 10
0.507582
 11
0.611512
 20
-1.166908
 21
-1.166908
  0
LINE
  8
CONSTRUCTION
 10
0.611512
 11
0.559547
 20
-1.166908
 21
-1.03848
  0
LINE
  8
CONSTRUCTION
 10
0.559547
 11
0.966478
 20
-1.03848
 21
-1.03848
  0
LINE
  8
CONSTRUCTION
 10
0.966478
 11
0.914513
 20
-1.03848
 21
-1.166908
  0
LINE
  8
CONSTRUCTION
 10
0.914513
 11
1.018442
 20
-1.166908
 21
-1.166908
  0
LINE
  8
CONSTRUCTION
 10
1.018442
 11
0.966478
 20
-1.166908
 21
-1.03848
  0
LINE
  8
CONSTRUCTION
 10
0.966478
 11
1.373408
 20
-1.03848
 21
-1.03848
  0
LINE
  8
CONSTRUCTION
 10
1.373408
 11
1.321443
 20
-1.03848
 21
-1.166908
  0
LINE
  8
CONSTRUCTION
 10
1.321443
 11
1.425373
 20
-1.166908
 21
-1.166908
  0
LINE
  8
CONSTRUCTION
 10
1.425373
 11
1.373408
 20
-1.166908
 21
-1.03848
  0
LINE
  8
CONSTRUCTION
 10
1.373408
 11
1.780281
 20
-1.03848
 21
-1.038482
  0
LINE
  8
CONSTRUCTION
 10
1.780281
 11
1.728316
 20
-1.038482
 21
-1.166909
  0
LINE
  8
CONSTRUCTION
 10
1.728316
 11
1.832246
 20
-1.166909
 21
-1.166909
  0
LINE
  8
CONSTRUCTION
 10
1.832246
 11
1.780281
 20
-1.166909
 21
-1.038482
  0
LINE
  8
CONSTRUCTION
 10
0.0
 11
4.0
 20
-1.561751
 21
-1.561751
  0
TEXT
  8
TEXT
 10
0.10065
 20
-1.405784
 30
0.0
 40
0.224
 50
0.0
  1
DOVETAIL DESIGNS
  0
TEXT
  8
TEXT
 10
2.276036
 20
-1.551751
 30
0.0
 40
0.099
 50
0.0
  1
& MILLWORK INC.
  0
TEXT
  8
TEXT
 10
1.092458
 20
-1.640461
 30
0.0
 40
0.07
 50
0.0
  1
Established 1979
  0
TEXT
  8
TEXT
 10
0.1
 20
-1.8
 30
0.0
 40
0.1
 50
0.0
  1
Phone: (406) 248-5010    Website: www.dovetailmt.com
  0
TEXT
  8
TEXT
 10
0.0
 20
-0.25
 30
0.0
 40
0.15625
 50
0.0
  1
HR3
  0
TEXT
  8
TEXT
 10
0.0
 20
-0.5
 30
0.0
 40
0.1
 50
0.0
  1
2-5/16"x1-3/8"
  0
ENDSEC
  0
EOF
