  0
SECTION
  2
ENTITIES
  0
LINE
  8
CONSTRUCTION
 10
0.152615
 11
0.10065
 20
-1.038482
 21
-1.166909
  0
LINE
  8
CONSTRUCTION
 10
0.10065
 11
0.20458
 20
-1.166909
 21
-1.166909
  0
LINE
  8
CONSTRUCTION
 10
0.20458
 11
0.152615
 20
-1.166909
 21
-1.038482
  0
LINE
  8
CONSTRUCTION
 10
0.152615
 11
0.559547
 20
-1.038482
 21
-1.03848
  0
LINE
  8
CONSTRUCTION
 10
0.559547
 11
0.507582
 20
-1.03848
 21
-1.166908
  0
LINE
  8
CONSTRUCTION
 10
0.507582
 11
0.611512
 20
-1.166908
 21
-1.166908
  0
LINE
  8
CONSTRUCTION
 10
0.611512
 11
0.559547
 20
-1.166908
 21
-1.03848
  0
LINE
  8
CONSTRUCTION
 10
0.559547
 11
0.966478
 20
-1.03848
 21
-1.03848
  0
LINE
  8
CONSTRUCTION
 10
0.966478
 11
0.914513
 20
-1.03848
 21
-1.166908
  0
LINE
  8
CONSTRUCTION
 10
0.914513
 11
1.018442
 20
-1.166908
 21
-1.166908
  0
LINE
  8
CONSTRUCTION
 10
1.018442
 11
0.966478
 20
-1.166908
 21
-1.03848
  0
LINE
  8
CONSTRUCTION
 10
0.966478
 11
1.373408
 20
-1.03848
 21
-1.03848
  0
LINE
  8
CONSTRUCTION
 10
1.373408
 11
1.321443
 20
-1.03848
 21
-1.166908
  0
LINE
  8
CONSTRUCTION
 10
1.321443
 11
1.425373
 20
-1.166908
 21
-1.166908
  0
LINE
  8
CONSTRUCTION
 10
1.425373
 11
1.373408
 20
-1.166908
 21
-1.03848
  0
LINE
  8
CONSTRUCTION
 10
1.373408
 11
1.780281
 20
-1.03848
 21
-1.038482
  0
LINE
  8
CONSTRUCTION
 10
1.780281
 11
1.728316
 20
-1.038482
 21
-1.166909
  0
LINE
  8
CONSTRUCTION
 10
1.728316
 11
1.832246
 20
-1.166909
 21
-1.166909
  0
LINE
  8
CONSTRUCTION
 10
1.832246
 11
1.780281
 20
-1.166909
 21
-1.038482
  0
LINE
  8
CONSTRUCTION
 10
0.0
 11
4.0
 20
-1.561751
 21
-1.561751
  0
ARC
  8
APS_GEOMETRY
 10
0.25
 20
0.25
 40
0.25
 50
180.0
 51
270.0
  0
LINE
  8
APS_GEOMETRY
 10
0.0
 11
0.0
 20
0.25
 21
2.441987
  0
ARC
  8
APS_GEOMETRY
 10
-0.25
 20
2.875
 40
0.5
 50
299.999966
 51
60.000034
  0
LINE
  8
APS_GEOMETRY
 10
0.0
 11
0.0
 20
3.308013
 21
4.0
  0
ARC
  8
APS_GEOMETRY
 10
0.25
 20
4.0
 40
0.25
 50
90.0
 51
180.0
  0
LINE
  8
APS_GEOMETRY
 10
0.25
 11
1.249154
 20
4.25
 21
4.25
  0
ARC
  8
APS_GEOMETRY
 10
1.249154
 20
4.0
 40
0.25
 50
300.224144
 51
90.0
  0
ARC
  8
APS_GEOMETRY
 10
0.464736
 20
3.782368
 40
0.910265
 50
315.089928
 51
0.101708
  0
ARC
  8
APS_GEOMETRY
 10
1.374981
 20
2.874977
 40
0.375
 50
135.089952
 51
224.910017
  0
ARC
  8
APS_GEOMETRY
 10
0.144773
 20
1.648623
 40
1.362054
 50
4.652543
 51
44.910114
  0
ARC
  8
APS_GEOMETRY
 10
-2.991436
 20
1.393387
 40
4.508632
 50
357.128365
 51
4.652634
  0
ARC
  8
APS_GEOMETRY
 10
-11.139278
 20
1.802144
 40
12.66672
 50
355.971804
 51
357.128144
  0
ARC
  8
APS_GEOMETRY
 10
0.5
 20
1.0
 40
1.0
 50
269.999991
 51
354.97102
  0
LINE
  8
APS_GEOMETRY
 10
0.5
 11
0.25
 20
0.0
 21
0.0
  0
TEXT
  8
TEXT
 10
0.10065
 20
-1.405784
 30
0.0
 40
0.224
 50
0.0
  1
DOVETAIL DESIGNS
  0
TEXT
  8
TEXT
 10
2.276036
 20
-1.551751
 30
0.0
 40
0.099
 50
0.0
  1
& MILLWORK INC.
  0
TEXT
  8
TEXT
 10
1.092458
 20
-1.640461
 30
0.0
 40
0.07
 50
0.0
  1
Established 1979
  0
TEXT
  8
TEXT
 10
0.1
 20
-1.8
 30
0.0
 40
0.1
 50
0.0
  1
Phone: (406) 248-5010    Website: www.dovetailmt.com
  0
TEXT
  8
TEXT
 10
0.0
 20
-0.5
 30
0.0
 40
0.1
 50
0.0
  1
1-1/2"x4-1/4"
  0
TEXT
  8
TEXT
 10
0.0
 20
-0.25
 30
0.0
 40
0.15625
 50
0.0
  1
HR29
  0
ENDSEC
  0
EOF
