  0
SECTION
  2
ENTITIES
  0
ARC
  8
APS_GEOMETRY
 10
0.452
 20
0.076694
 40
0.077
 50
180.0
 51
264.890278
  0
LINE
  8
APS_GEOMETRY
 10
0.445142
 11
2.804858
 20
0.0
 21
0.0
  0
ARC
  8
APS_GEOMETRY
 10
2.798
 20
0.076694
 40
0.077
 50
275.109816
 51
0.000009
  0
ARC
  8
APS_GEOMETRY
 10
2.875
 20
0.451694
 40
0.375
 50
270.0
 51
90.0
  0
LINE
  8
APS_GEOMETRY
 10
2.875
 11
2.875
 20
0.826694
 21
0.903388
  0
ARC
  8
APS_GEOMETRY
 10
2.750909
 20
0.888341
 40
0.125
 50
6.913801
 51
84.565599
  0
ARC
  8
APS_GEOMETRY
 10
2.75
 20
1.512617
 40
0.5
 50
179.99996
 51
271.460881
  0
ARC
  8
APS_GEOMETRY
 10
1.624639
 20
2.12462
 40
0.875
 50
315.618525
 51
135.550878
  0
ARC
  8
APS_GEOMETRY
 10
1.625
 20
2.124989
 40
0.875
 50
135.584691
 51
224.415309
  0
ARC
  8
APS_GEOMETRY
 10
0.5
 20
1.512617
 40
0.5
 50
268.539126
 51
359.99995
  0
ARC
  8
APS_GEOMETRY
 10
0.499091
 20
0.888341
 40
0.125
 50
95.434372
 51
173.086406
  0
LINE
  8
APS_GEOMETRY
 10
0.375
 11
0.375
 20
0.903388
 21
0.826694
  0
ARC
  8
APS_GEOMETRY
 10
0.375
 20
0.451694
 40
0.375
 50
90.0
 51
270.0
  0
LINE
  8
CONSTRUCTION
 10
0.152615
 11
0.10065
 20
-1.038482
 21
-1.166909
  0
LINE
  8
CONSTRUCTION
 10
0.10065
 11
0.20458
 20
-1.166909
 21
-1.166909
  0
LINE
  8
CONSTRUCTION
 10
0.20458
 11
0.152615
 20
-1.166909
 21
-1.038482
  0
LINE
  8
CONSTRUCTION
 10
0.152615
 11
0.559547
 20
-1.038482
 21
-1.03848
  0
LINE
  8
CONSTRUCTION
 10
0.559547
 11
0.507582
 20
-1.03848
 21
-1.166908
  0
LINE
  8
CONSTRUCTION
 10
0.507582
 11
0.611512
 20
-1.166908
 21
-1.166908
  0
LINE
  8
CONSTRUCTION
 10
0.611512
 11
0.559547
 20
-1.166908
 21
-1.03848
  0
LINE
  8
CONSTRUCTION
 10
0.559547
 11
0.966478
 20
-1.03848
 21
-1.03848
  0
LINE
  8
CONSTRUCTION
 10
0.966478
 11
0.914513
 20
-1.03848
 21
-1.166908
  0
LINE
  8
CONSTRUCTION
 10
0.914513
 11
1.018442
 20
-1.166908
 21
-1.166908
  0
LINE
  8
CONSTRUCTION
 10
1.018442
 11
0.966478
 20
-1.166908
 21
-1.03848
  0
LINE
  8
CONSTRUCTION
 10
0.966478
 11
1.373408
 20
-1.03848
 21
-1.03848
  0
LINE
  8
CONSTRUCTION
 10
1.373408
 11
1.321443
 20
-1.03848
 21
-1.166908
  0
LINE
  8
CONSTRUCTION
 10
1.321443
 11
1.425373
 20
-1.166908
 21
-1.166908
  0
LINE
  8
CONSTRUCTION
 10
1.425373
 11
1.373408
 20
-1.166908
 21
-1.03848
  0
LINE
  8
CONSTRUCTION
 10
1.373408
 11
1.780281
 20
-1.03848
 21
-1.038482
  0
LINE
  8
CONSTRUCTION
 10
1.780281
 11
1.728316
 20
-1.038482
 21
-1.166909
  0
LINE
  8
CONSTRUCTION
 10
1.728316
 11
1.832246
 20
-1.166909
 21
-1.166909
  0
LINE
  8
CONSTRUCTION
 10
1.832246
 11
1.780281
 20
-1.166909
 21
-1.038482
  0
LINE
  8
CONSTRUCTION
 10
0.0
 11
4.0
 20
-1.561751
 21
-1.561751
  0
TEXT
  8
TEXT
 10
0.10065
 20
-1.405784
 30
0.0
 40
0.224
 50
0.0
  1
DOVETAIL DESIGNS
  0
TEXT
  8
TEXT
 10
2.276036
 20
-1.551751
 30
0.0
 40
0.099
 50
0.0
  1
& MILLWORK INC.
  0
TEXT
  8
TEXT
 10
1.092458
 20
-1.640461
 30
0.0
 40
0.07
 50
0.0
  1
Established 1979
  0
TEXT
  8
TEXT
 10
0.1
 20
-1.8
 30
0.0
 40
0.1
 50
0.0
  1
Phone: (406) 248-5010    Website: www.dovetailmt.com
  0
TEXT
  8
TEXT
 10
0.0
 20
-0.5
 30
0.0
 40
0.1
 50
0.0
  1
3-1/4"x3"
  0
TEXT
  8
TEXT
 10
0.0
 20
-0.25
 30
0.0
 40
0.15625
 50
0.0
  1
HR27
  0
ENDSEC
  0
EOF
