  0
SECTION
  2
ENTITIES
  0
ARC
  8
APS_GEOMETRY
 10
0.751109
 20
0.756635
 40
1.493365
 50
90.000076
 51
98.416427
  0
ARC
  8
APS_GEOMETRY
 10
0.623732
 20
1.617819
 40
0.622812
 50
98.420395
 51
125.195643
  0
ARC
  8
APS_GEOMETRY
 10
0.62475
 20
1.616405
 40
0.624554
 50
125.19727
 51
151.922272
  0
ARC
  8
APS_GEOMETRY
 10
0.626096
 20
1.615656
 40
0.626094
 50
151.919747
 51
178.600419
  0
ARC
  8
APS_GEOMETRY
 10
0.626186
 20
1.6156
 40
0.626185
 50
178.595429
 51
205.273555
  0
ARC
  8
APS_GEOMETRY
 10
0.624904
 20
1.61496
 40
0.624753
 50
205.270696
 51
231.989937
  0
LINE
  8
APS_GEOMETRY
 10
0.240181
 11
0.572868
 20
1.122715
 21
0.849999
  0
ARC
  8
APS_GEOMETRY
 10
0.419446
 20
0.652799
 40
0.249852
 50
28.635054
 51
52.117105
  0
ARC
  8
APS_GEOMETRY
 10
0.418963
 20
0.652524
 40
0.250408
 50
5.190453
 51
28.637301
  0
ARC
  8
APS_GEOMETRY
 10
0.418846
 20
0.6525
 40
0.250527
 50
341.753661
 51
5.193354
  0
ARC
  8
APS_GEOMETRY
 10
0.473529
 20
0.637193
 40
0.193818
 50
326.757809
 51
340.989812
  0
ARC
  8
APS_GEOMETRY
 10
0.413539
 20
0.676514
 40
0.265546
 50
315.174683
 51
326.757598
  0
ARC
  8
APS_GEOMETRY
 10
0.387842
 20
0.702048
 40
0.301772
 50
305.246087
 51
315.17544
  0
ARC
  8
APS_GEOMETRY
 10
0.374032
 20
0.721606
 40
0.325714
 50
295.896403
 51
305.244638
  0
ARC
  8
APS_GEOMETRY
 10
0.380121
 20
0.709069
 40
0.311776
 50
291.096996
 51
295.896092
  0
ARC
  8
APS_GEOMETRY
 10
0.391844
 20
0.67869
 40
0.279214
 50
286.010337
 51
291.096539
  0
ARC
  8
APS_GEOMETRY
 10
0.638624
 20
-0.11316
 40
0.550308
 50
107.968855
 51
117.551786
  0
ARC
  8
APS_GEOMETRY
 10
0.477635
 20
0.195436
 40
0.202243
 50
117.554379
 51
136.67494
  0
ARC
  8
APS_GEOMETRY
 10
0.476811
 20
0.196213
 40
0.201111
 50
136.674984
 51
157.857108
  0
ARC
  8
APS_GEOMETRY
 10
0.728177
 20
0.093902
 40
0.4725
 50
157.854552
 51
172.478415
  0
ARC
  8
APS_GEOMETRY
 10
1.044457
 20
0.052138
 40
0.791526
 50
172.478163
 51
177.212925
  0
ARC
  8
APS_GEOMETRY
 10
1.73733
 20
0.018394
 40
1.48522
 50
177.212409
 51
180.709599
  0
LINE
  8
APS_GEOMETRY
 10
0.252224
 11
2.247754
 20
0.0
 21
0.0
  0
ARC
  8
APS_GEOMETRY
 10
0.762648
 20
0.018399
 40
1.48522
 50
359.290209
 51
2.787442
  0
ARC
  8
APS_GEOMETRY
 10
1.455521
 20
0.05213
 40
0.791526
 50
2.787691
 51
7.522402
  0
ARC
  8
APS_GEOMETRY
 10
1.7718
 20
0.093906
 40
0.4725
 50
7.52113
 51
22.144942
  0
ARC
  8
APS_GEOMETRY
 10
2.023167
 20
0.196213
 40
0.201111
 50
22.142768
 51
43.325218
  0
ARC
  8
APS_GEOMETRY
 10
2.022345
 20
0.195434
 40
0.202243
 50
43.325956
 51
62.446125
  0
ARC
  8
APS_GEOMETRY
 10
1.861351
 20
-0.113159
 40
0.550308
 50
62.447815
 51
72.030797
  0
ARC
  8
APS_GEOMETRY
 10
2.10814
 20
0.678688
 40
0.279214
 50
248.902225
 51
253.988382
  0
ARC
  8
APS_GEOMETRY
 10
2.119851
 20
0.709071
 40
0.311776
 50
244.105083
 51
248.904252
  0
ARC
  8
APS_GEOMETRY
 10
2.125947
 20
0.721605
 40
0.325714
 50
234.755054
 51
244.103272
  0
ARC
  8
APS_GEOMETRY
 10
2.112134
 20
0.70205
 40
0.301772
 50
224.82525
 51
234.75449
  0
ARC
  8
APS_GEOMETRY
 10
2.086443
 20
0.67651
 40
0.265546
 50
213.241307
 51
224.824273
  0
ARC
  8
APS_GEOMETRY
 10
2.026451
 20
0.637193
 40
0.193818
 50
199.010122
 51
213.242002
  0
ARC
  8
APS_GEOMETRY
 10
2.081133
 20
0.652502
 40
0.250527
 50
174.80708
 51
198.24671
  0
ARC
  8
APS_GEOMETRY
 10
2.081016
 20
0.652528
 40
0.250408
 50
151.363398
 51
174.81053
  0
ARC
  8
APS_GEOMETRY
 10
2.080529
 20
0.652795
 40
0.249852
 50
127.88165
 51
151.363702
  0
LINE
  8
APS_GEOMETRY
 10
1.927111
 11
2.259797
 20
0.849999
 21
1.122716
  0
ARC
  8
APS_GEOMETRY
 10
1.875076
 20
1.614962
 40
0.624753
 50
308.009868
 51
334.729118
  0
ARC
  8
APS_GEOMETRY
 10
1.873793
 20
1.615599
 40
0.626185
 50
334.726515
 51
1.404602
  0
ARC
  8
APS_GEOMETRY
 10
1.873883
 20
1.615656
 40
0.626094
 50
1.399615
 51
28.080353
  0
ARC
  8
APS_GEOMETRY
 10
1.875228
 20
1.616406
 40
0.624554
 50
28.077724
 51
54.802624
  0
ARC
  8
APS_GEOMETRY
 10
1.876247
 20
1.617819
 40
0.622812
 50
54.804281
 51
81.579615
  0
ARC
  8
APS_GEOMETRY
 10
1.74887
 20
0.756635
 40
1.493365
 50
81.583598
 51
89.999924
  0
LINE
  8
APS_GEOMETRY
 10
1.748872
 11
0.751107
 20
2.25
 21
2.25
  0
LINE
  8
CONSTRUCTION
 10
0.152615
 11
0.10065
 20
-1.038482
 21
-1.166909
  0
LINE
  8
CONSTRUCTION
 10
0.10065
 11
0.20458
 20
-1.166909
 21
-1.166909
  0
LINE
  8
CONSTRUCTION
 10
0.20458
 11
0.152615
 20
-1.166909
 21
-1.038482
  0
LINE
  8
CONSTRUCTION
 10
0.152615
 11
0.559547
 20
-1.038482
 21
-1.03848
  0
LINE
  8
CONSTRUCTION
 10
0.559547
 11
0.507582
 20
-1.03848
 21
-1.166908
  0
LINE
  8
CONSTRUCTION
 10
0.507582
 11
0.611512
 20
-1.166908
 21
-1.166908
  0
LINE
  8
CONSTRUCTION
 10
0.611512
 11
0.559547
 20
-1.166908
 21
-1.03848
  0
LINE
  8
CONSTRUCTION
 10
0.559547
 11
0.966478
 20
-1.03848
 21
-1.03848
  0
LINE
  8
CONSTRUCTION
 10
0.966478
 11
0.914513
 20
-1.03848
 21
-1.166908
  0
LINE
  8
CONSTRUCTION
 10
0.914513
 11
1.018442
 20
-1.166908
 21
-1.166908
  0
LINE
  8
CONSTRUCTION
 10
1.018442
 11
0.966478
 20
-1.166908
 21
-1.03848
  0
LINE
  8
CONSTRUCTION
 10
0.966478
 11
1.373408
 20
-1.03848
 21
-1.03848
  0
LINE
  8
CONSTRUCTION
 10
1.373408
 11
1.321443
 20
-1.03848
 21
-1.166908
  0
LINE
  8
CONSTRUCTION
 10
1.321443
 11
1.425373
 20
-1.166908
 21
-1.166908
  0
LINE
  8
CONSTRUCTION
 10
1.425373
 11
1.373408
 20
-1.166908
 21
-1.03848
  0
LINE
  8
CONSTRUCTION
 10
1.373408
 11
1.780281
 20
-1.03848
 21
-1.038482
  0
LINE
  8
CONSTRUCTION
 10
1.780281
 11
1.728316
 20
-1.038482
 21
-1.166909
  0
LINE
  8
CONSTRUCTION
 10
1.728316
 11
1.832246
 20
-1.166909
 21
-1.166909
  0
LINE
  8
CONSTRUCTION
 10
1.832246
 11
1.780281
 20
-1.166909
 21
-1.038482
  0
LINE
  8
CONSTRUCTION
 10
0.0
 11
4.0
 20
-1.561751
 21
-1.561751
  0
TEXT
  8
TEXT
 10
0.10065
 20
-1.405784
 30
0.0
 40
0.224
 50
0.0
  1
DOVETAIL DESIGNS
  0
TEXT
  8
TEXT
 10
2.276036
 20
-1.551751
 30
0.0
 40
0.099
 50
0.0
  1
& MILLWORK INC.
  0
TEXT
  8
TEXT
 10
1.092458
 20
-1.640461
 30
0.0
 40
0.07
 50
0.0
  1
Established 1979
  0
TEXT
  8
TEXT
 10
0.1
 20
-1.8
 30
0.0
 40
0.1
 50
0.0
  1
Phone: (406) 248-5010    Website: www.dovetailmt.com
  0
TEXT
  8
TEXT
 10
0.0
 20
-0.25
 30
0.0
 40
0.15625
 50
0.0
  1
HR26
  0
TEXT
  8
TEXT
 10
0.0
 20
-0.5
 30
0.0
 40
0.1
 50
0.0
  1
2-1/2"x2-1/4"
  0
ENDSEC
  0
EOF
