  0
SECTION
  2
ENTITIES
  0
ARC
  8
APS_GEOMETRY
 10
1.500022
 20
1.864534
 40
1.635457
 50
36.626526
 51
143.373474
  0
LINE
  8
APS_GEOMETRY
 10
0.1875
 11
0.1875
 20
2.840242
 21
2.749991
  0
ARC
  8
APS_GEOMETRY
 10
0.260417
 20
2.499991
 40
0.260417
 50
106.260358
 51
253.739697
  0
LINE
  8
APS_GEOMETRY
 10
0.1875
 11
0.1875
 20
2.249991
 21
2.15974
  0
ARC
  8
APS_GEOMETRY
 10
-0.676172
 20
1.361217
 40
1.176252
 50
312.931381
 51
42.755466
  0
LINE
  8
APS_GEOMETRY
 10
0.124999
 11
0.124999
 20
0.5
 21
0.125
  0
LINE
  8
APS_GEOMETRY
 10
0.124999
 11
0.249999
 20
0.125
 21
0.125
  0
LINE
  8
APS_GEOMETRY
 10
0.249999
 11
0.249999
 20
0.125
 21
0.0
  0
LINE
  8
APS_GEOMETRY
 10
0.249999
 11
1.500022
 20
0.0
 21
0.0
  0
LINE
  8
APS_GEOMETRY
 10
1.500022
 11
2.750045
 20
0.0
 21
-0.000024
  0
LINE
  8
APS_GEOMETRY
 10
2.750045
 11
2.750048
 20
-0.000024
 21
0.124976
  0
LINE
  8
APS_GEOMETRY
 10
2.750048
 11
2.875048
 20
0.124976
 21
0.124973
  0
LINE
  8
APS_GEOMETRY
 10
2.875048
 11
2.875044
 20
0.124973
 21
0.5
  0
ARC
  8
APS_GEOMETRY
 10
3.676216
 20
1.361216
 40
1.176252
 50
137.24446
 51
227.068574
  0
LINE
  8
APS_GEOMETRY
 10
2.812545
 11
2.812544
 20
2.15974
 21
2.249991
  0
ARC
  8
APS_GEOMETRY
 10
2.739627
 20
2.499991
 40
0.260417
 50
286.260243
 51
73.739582
  0
LINE
  8
APS_GEOMETRY
 10
2.812545
 11
2.812544
 20
2.749991
 21
2.840242
  0
LINE
  8
CONSTRUCTION
 10
0.152615
 11
0.10065
 20
-1.038482
 21
-1.166909
  0
LINE
  8
CONSTRUCTION
 10
0.10065
 11
0.20458
 20
-1.166909
 21
-1.166909
  0
LINE
  8
CONSTRUCTION
 10
0.20458
 11
0.152615
 20
-1.166909
 21
-1.038482
  0
LINE
  8
CONSTRUCTION
 10
0.152615
 11
0.559547
 20
-1.038482
 21
-1.03848
  0
LINE
  8
CONSTRUCTION
 10
0.559547
 11
0.507582
 20
-1.03848
 21
-1.166908
  0
LINE
  8
CONSTRUCTION
 10
0.507582
 11
0.611512
 20
-1.166908
 21
-1.166908
  0
LINE
  8
CONSTRUCTION
 10
0.611512
 11
0.559547
 20
-1.166908
 21
-1.03848
  0
LINE
  8
CONSTRUCTION
 10
0.559547
 11
0.966478
 20
-1.03848
 21
-1.03848
  0
LINE
  8
CONSTRUCTION
 10
0.966478
 11
0.914513
 20
-1.03848
 21
-1.166908
  0
LINE
  8
CONSTRUCTION
 10
0.914513
 11
1.018442
 20
-1.166908
 21
-1.166908
  0
LINE
  8
CONSTRUCTION
 10
1.018442
 11
0.966478
 20
-1.166908
 21
-1.03848
  0
LINE
  8
CONSTRUCTION
 10
0.966478
 11
1.373408
 20
-1.03848
 21
-1.03848
  0
LINE
  8
CONSTRUCTION
 10
1.373408
 11
1.321443
 20
-1.03848
 21
-1.166908
  0
LINE
  8
CONSTRUCTION
 10
1.321443
 11
1.425373
 20
-1.166908
 21
-1.166908
  0
LINE
  8
CONSTRUCTION
 10
1.425373
 11
1.373408
 20
-1.166908
 21
-1.03848
  0
LINE
  8
CONSTRUCTION
 10
1.373408
 11
1.780281
 20
-1.03848
 21
-1.038482
  0
LINE
  8
CONSTRUCTION
 10
1.780281
 11
1.728316
 20
-1.038482
 21
-1.166909
  0
LINE
  8
CONSTRUCTION
 10
1.728316
 11
1.832246
 20
-1.166909
 21
-1.166909
  0
LINE
  8
CONSTRUCTION
 10
1.832246
 11
1.780281
 20
-1.166909
 21
-1.038482
  0
LINE
  8
CONSTRUCTION
 10
0.0
 11
4.0
 20
-1.561751
 21
-1.561751
  0
TEXT
  8
TEXT
 10
0.10065
 20
-1.405784
 30
0.0
 40
0.224
 50
0.0
  1
DOVETAIL DESIGNS
  0
TEXT
  8
TEXT
 10
2.276036
 20
-1.551751
 30
0.0
 40
0.099
 50
0.0
  1
& MILLWORK INC.
  0
TEXT
  8
TEXT
 10
1.092458
 20
-1.640461
 30
0.0
 40
0.07
 50
0.0
  1
Established 1979
  0
TEXT
  8
TEXT
 10
0.1
 20
-1.8
 30
0.0
 40
0.1
 50
0.0
  1
Phone: (406) 248-5010    Website: www.dovetailmt.com
  0
TEXT
  8
TEXT
 10
0.0
 20
-0.5
 30
0.0
 40
0.1
 50
0.0
  1
3"x3-1/2"
  0
TEXT
  8
TEXT
 10
0.0
 20
-0.25
 30
0.0
 40
0.15625
 50
0.0
  1
HR25
  0
ENDSEC
  0
EOF
