  0
SECTION
  2
ENTITIES
  0
ARC
  8
APS_GEOMETRY
 10
1.926719
 20
0.506195
 40
1.142854
 50
31.853525
 51
56.309932
  0
ARC
  8
APS_GEOMETRY
 10
1.668914
 20
0.119482
 40
1.607623
 50
56.310038
 51
74.563027
  0
ARC
  8
APS_GEOMETRY
 10
1.499999
 20
-0.492198
 40
2.242198
 50
74.562887
 51
105.437051
  0
ARC
  8
APS_GEOMETRY
 10
1.331091
 20
0.119484
 40
1.607623
 50
105.43716
 51
123.690145
  0
ARC
  8
APS_GEOMETRY
 10
1.07328
 20
0.506193
 40
1.142854
 50
123.68996
 51
148.146356
  0
ARC
  8
APS_GEOMETRY
 10
0.680882
 20
0.75
 40
0.680882
 50
148.146453
 51
211.853553
  0
ARC
  8
APS_GEOMETRY
 10
1.073282
 20
0.993805
 40
1.142854
 50
211.853472
 51
236.309896
  0
ARC
  8
APS_GEOMETRY
 10
1.331072
 20
1.380527
 40
1.607623
 50
236.310631
 51
239.175145
  0
LINE
  8
APS_GEOMETRY
 10
0.507301
 11
0.75
 20
0.000001
 21
0.0
  0
LINE
  8
APS_GEOMETRY
 10
0.75
 11
0.75
 20
0.0
 21
0.25
  0
LINE
  8
APS_GEOMETRY
 10
0.75
 11
2.25
 20
0.25
 21
0.25
  0
LINE
  8
APS_GEOMETRY
 10
2.25
 11
2.25
 20
0.25
 21
0.0
  0
LINE
  8
APS_GEOMETRY
 10
2.25
 11
2.492699
 20
0.0
 21
0.0
  0
ARC
  8
APS_GEOMETRY
 10
1.6689
 20
1.38051
 40
1.607623
 50
300.826028
 51
303.690544
  0
ARC
  8
APS_GEOMETRY
 10
1.92672
 20
0.993807
 40
1.142854
 50
303.68996
 51
328.146356
  0
ARC
  8
APS_GEOMETRY
 10
2.319118
 20
0.75
 40
0.680882
 50
328.146425
 51
31.853575
  0
LINE
  8
CONSTRUCTION
 10
0.152615
 11
0.10065
 20
-1.038482
 21
-1.166909
  0
LINE
  8
CONSTRUCTION
 10
0.10065
 11
0.20458
 20
-1.166909
 21
-1.166909
  0
LINE
  8
CONSTRUCTION
 10
0.20458
 11
0.152615
 20
-1.166909
 21
-1.038482
  0
LINE
  8
CONSTRUCTION
 10
0.152615
 11
0.559547
 20
-1.038482
 21
-1.03848
  0
LINE
  8
CONSTRUCTION
 10
0.559547
 11
0.507582
 20
-1.03848
 21
-1.166908
  0
LINE
  8
CONSTRUCTION
 10
0.507582
 11
0.611512
 20
-1.166908
 21
-1.166908
  0
LINE
  8
CONSTRUCTION
 10
0.611512
 11
0.559547
 20
-1.166908
 21
-1.03848
  0
LINE
  8
CONSTRUCTION
 10
0.559547
 11
0.966478
 20
-1.03848
 21
-1.03848
  0
LINE
  8
CONSTRUCTION
 10
0.966478
 11
0.914513
 20
-1.03848
 21
-1.166908
  0
LINE
  8
CONSTRUCTION
 10
0.914513
 11
1.018442
 20
-1.166908
 21
-1.166908
  0
LINE
  8
CONSTRUCTION
 10
1.018442
 11
0.966478
 20
-1.166908
 21
-1.03848
  0
LINE
  8
CONSTRUCTION
 10
0.966478
 11
1.373408
 20
-1.03848
 21
-1.03848
  0
LINE
  8
CONSTRUCTION
 10
1.373408
 11
1.321443
 20
-1.03848
 21
-1.166908
  0
LINE
  8
CONSTRUCTION
 10
1.321443
 11
1.425373
 20
-1.166908
 21
-1.166908
  0
LINE
  8
CONSTRUCTION
 10
1.425373
 11
1.373408
 20
-1.166908
 21
-1.03848
  0
LINE
  8
CONSTRUCTION
 10
1.373408
 11
1.780281
 20
-1.03848
 21
-1.038482
  0
LINE
  8
CONSTRUCTION
 10
1.780281
 11
1.728316
 20
-1.038482
 21
-1.166909
  0
LINE
  8
CONSTRUCTION
 10
1.728316
 11
1.832246
 20
-1.166909
 21
-1.166909
  0
LINE
  8
CONSTRUCTION
 10
1.832246
 11
1.780281
 20
-1.166909
 21
-1.038482
  0
LINE
  8
CONSTRUCTION
 10
0.0
 11
4.0
 20
-1.561751
 21
-1.561751
  0
TEXT
  8
TEXT
 10
0.10065
 20
-1.405784
 30
0.0
 40
0.224
 50
0.0
  1
DOVETAIL DESIGNS
  0
TEXT
  8
TEXT
 10
2.276036
 20
-1.551751
 30
0.0
 40
0.099
 50
0.0
  1
& MILLWORK INC.
  0
TEXT
  8
TEXT
 10
1.092458
 20
-1.640461
 30
0.0
 40
0.07
 50
0.0
  1
Established 1979
  0
TEXT
  8
TEXT
 10
0.1
 20
-1.8
 30
0.0
 40
0.1
 50
0.0
  1
Phone: (406) 248-5010    Website: www.dovetailmt.com
  0
TEXT
  8
TEXT
 10
0.0
 20
-0.25
 30
0.0
 40
0.15625
 50
0.0
  1
HR24
  0
TEXT
  8
TEXT
 10
0.0
 20
-0.5
 30
0.0
 40
0.1
 50
0.0
  1
3"x1-3/4"
  0
ENDSEC
  0
EOF
