  0
SECTION
  2
ENTITIES
  0
ARC
  8
MOULD-NEW
 10
1.203904
 20
1.094888
 40
1.202909
 50
294.467034
 51
300.465449
  0
ARC
  8
MOULD-NEW
 10
1.419144
 20
0.728973
 40
0.778383
 50
300.465668
 51
324.848376
  0
ARC
  8
MOULD-NEW
 10
1.744318
 20
0.500001
 40
0.380682
 50
324.848071
 51
35.151745
  0
ARC
  8
MOULD-NEW
 10
1.419147
 20
0.271025
 40
0.778383
 50
35.151978
 51
59.534698
  0
ARC
  8
MOULD-NEW
 10
1.203897
 20
-0.094884
 40
1.202908
 50
59.534187
 51
76.306042
  0
ARC
  8
MOULD-NEW
 10
1.062506
 20
-0.675225
 40
1.800225
 50
76.306543
 51
103.693837
  0
ARC
  8
MOULD-NEW
 10
0.921095
 20
-0.094886
 40
1.202908
 50
103.693546
 51
120.465415
  0
ARC
  8
MOULD-NEW
 10
0.705857
 20
0.271029
 40
0.778383
 50
120.465803
 51
144.848568
  0
ARC
  8
MOULD-NEW
 10
0.380682
 20
0.499999
 40
0.380682
 50
144.848071
 51
215.151745
  0
ARC
  8
MOULD-NEW
 10
0.705853
 20
0.728975
 40
0.778383
 50
215.151978
 51
239.534698
  0
ARC
  8
MOULD-NEW
 10
0.921102
 20
1.094885
 40
1.202909
 50
239.534269
 51
245.532654
  0
LINE
  8
MOULD-NEW
 10
0.422888
 11
1.702112
 20
0.000001
 21
0.000001
  0
LINE
  8
CONSTRUCTION
 10
0.152615
 11
0.10065
 20
-1.038482
 21
-1.166909
  0
LINE
  8
CONSTRUCTION
 10
0.10065
 11
0.20458
 20
-1.166909
 21
-1.166909
  0
LINE
  8
CONSTRUCTION
 10
0.20458
 11
0.152615
 20
-1.166909
 21
-1.038482
  0
LINE
  8
CONSTRUCTION
 10
0.152615
 11
0.559547
 20
-1.038482
 21
-1.03848
  0
LINE
  8
CONSTRUCTION
 10
0.559547
 11
0.507582
 20
-1.03848
 21
-1.166908
  0
LINE
  8
CONSTRUCTION
 10
0.507582
 11
0.611512
 20
-1.166908
 21
-1.166908
  0
LINE
  8
CONSTRUCTION
 10
0.611512
 11
0.559547
 20
-1.166908
 21
-1.03848
  0
LINE
  8
CONSTRUCTION
 10
0.559547
 11
0.966478
 20
-1.03848
 21
-1.03848
  0
LINE
  8
CONSTRUCTION
 10
0.966478
 11
0.914513
 20
-1.03848
 21
-1.166908
  0
LINE
  8
CONSTRUCTION
 10
0.914513
 11
1.018442
 20
-1.166908
 21
-1.166908
  0
LINE
  8
CONSTRUCTION
 10
1.018442
 11
0.966478
 20
-1.166908
 21
-1.03848
  0
LINE
  8
CONSTRUCTION
 10
0.966478
 11
1.373408
 20
-1.03848
 21
-1.03848
  0
LINE
  8
CONSTRUCTION
 10
1.373408
 11
1.321443
 20
-1.03848
 21
-1.166908
  0
LINE
  8
CONSTRUCTION
 10
1.321443
 11
1.425373
 20
-1.166908
 21
-1.166908
  0
LINE
  8
CONSTRUCTION
 10
1.425373
 11
1.373408
 20
-1.166908
 21
-1.03848
  0
LINE
  8
CONSTRUCTION
 10
1.373408
 11
1.780281
 20
-1.03848
 21
-1.038482
  0
LINE
  8
CONSTRUCTION
 10
1.780281
 11
1.728316
 20
-1.038482
 21
-1.166909
  0
LINE
  8
CONSTRUCTION
 10
1.728316
 11
1.832246
 20
-1.166909
 21
-1.166909
  0
LINE
  8
CONSTRUCTION
 10
1.832246
 11
1.780281
 20
-1.166909
 21
-1.038482
  0
LINE
  8
CONSTRUCTION
 10
0.0
 11
4.0
 20
-1.561751
 21
-1.561751
  0
TEXT
  8
TEXT
 10
0.10065
 20
-1.405784
 30
0.0
 40
0.224
 50
0.0
  1
DOVETAIL DESIGNS
  0
TEXT
  8
TEXT
 10
2.276036
 20
-1.551751
 30
0.0
 40
0.099
 50
0.0
  1
& MILLWORK INC.
  0
TEXT
  8
TEXT
 10
1.092458
 20
-1.640461
 30
0.0
 40
0.07
 50
0.0
  1
Established 1979
  0
TEXT
  8
TEXT
 10
0.1
 20
-1.8
 30
0.0
 40
0.1
 50
0.0
  1
Phone: (406) 248-5010    Website: www.dovetailmt.com
  0
TEXT
  8
TEXT
 10
0.0
 20
-0.5
 30
0.0
 40
0.1
 50
0.0
  1
2-1/8"x1-1/8"
  0
TEXT
  8
TEXT
 10
0.0
 20
-0.25
 30
0.0
 40
0.15625
 50
0.0
  1
HR21
  0
ENDSEC
  0
EOF
