  0
SECTION
  2
ENTITIES
  0
ARC
  8
MOULD-NEW
 10
0.0625
 20
1.355951
 40
0.0625
 50
105.999895
 51
179.999829
  0
LINE
  8
MOULD-NEW
 10
0.0
 11
0.0
 20
1.355951
 21
0.88307
  0
ARC
  8
MOULD-NEW
 10
0.03125
 20
0.88307
 40
0.03125
 50
180.0
 51
255.521634
  0
ARC
  8
MOULD-NEW
 10
-0.015625
 20
0.701524
 40
0.15625
 50
284.477557
 51
75.522589
  0
ARC
  8
MOULD-NEW
 10
0.031249
 20
0.519979
 40
0.031249
 50
104.476213
 51
180.001243
  0
LINE
  8
MOULD-NEW
 10
0.0
 11
0.0
 20
0.519978
 21
0.03125
  0
ARC
  8
MOULD-NEW
 10
0.03125
 20
0.03125
 40
0.03125
 50
179.999957
 51
270.000043
  0
LINE
  8
MOULD-NEW
 10
0.03125
 11
2.40625
 20
0.0
 21
0.0
  0
ARC
  8
MOULD-NEW
 10
2.40625
 20
0.03125
 40
0.03125
 50
269.999957
 51
0.000043
  0
LINE
  8
MOULD-NEW
 10
2.4375
 11
2.4375
 20
0.03125
 21
0.519978
  0
ARC
  8
MOULD-NEW
 10
2.406251
 20
0.519978
 40
0.031249
 50
0.000004
 51
75.522551
  0
ARC
  8
MOULD-NEW
 10
2.453124
 20
0.701524
 40
0.15625
 50
104.476989
 51
255.523258
  0
ARC
  8
MOULD-NEW
 10
2.40625
 20
0.88307
 40
0.03125
 50
284.477633
 51
0.000739
  0
LINE
  8
MOULD-NEW
 10
2.4375
 11
2.4375
 20
0.88307
 21
1.355951
  0
ARC
  8
MOULD-NEW
 10
2.375
 20
1.355951
 40
0.0625
 50
0.0
 51
74.000105
  0
LINE
  8
MOULD-NEW
 10
2.392227
 11
1.235977
 20
1.41603
 21
1.747579
  0
ARC
  8
MOULD-NEW
 10
1.21875
 20
1.687501
 40
0.062499
 50
74.000203
 51
106.000166
  0
LINE
  8
MOULD-NEW
 10
1.201523
 11
0.045273
 20
1.747579
 21
1.41603
  0
LINE
  8
CONSTRUCTION
 10
0.152615
 11
0.10065
 20
-1.038482
 21
-1.166909
  0
LINE
  8
CONSTRUCTION
 10
0.10065
 11
0.20458
 20
-1.166909
 21
-1.166909
  0
LINE
  8
CONSTRUCTION
 10
0.20458
 11
0.152615
 20
-1.166909
 21
-1.038482
  0
LINE
  8
CONSTRUCTION
 10
0.152615
 11
0.559547
 20
-1.038482
 21
-1.03848
  0
LINE
  8
CONSTRUCTION
 10
0.559547
 11
0.507582
 20
-1.03848
 21
-1.166908
  0
LINE
  8
CONSTRUCTION
 10
0.507582
 11
0.611512
 20
-1.166908
 21
-1.166908
  0
LINE
  8
CONSTRUCTION
 10
0.611512
 11
0.559547
 20
-1.166908
 21
-1.03848
  0
LINE
  8
CONSTRUCTION
 10
0.559547
 11
0.966478
 20
-1.03848
 21
-1.03848
  0
LINE
  8
CONSTRUCTION
 10
0.966478
 11
0.914513
 20
-1.03848
 21
-1.166908
  0
LINE
  8
CONSTRUCTION
 10
0.914513
 11
1.018442
 20
-1.166908
 21
-1.166908
  0
LINE
  8
CONSTRUCTION
 10
1.018442
 11
0.966478
 20
-1.166908
 21
-1.03848
  0
LINE
  8
CONSTRUCTION
 10
0.966478
 11
1.373408
 20
-1.03848
 21
-1.03848
  0
LINE
  8
CONSTRUCTION
 10
1.373408
 11
1.321443
 20
-1.03848
 21
-1.166908
  0
LINE
  8
CONSTRUCTION
 10
1.321443
 11
1.425373
 20
-1.166908
 21
-1.166908
  0
LINE
  8
CONSTRUCTION
 10
1.425373
 11
1.373408
 20
-1.166908
 21
-1.03848
  0
LINE
  8
CONSTRUCTION
 10
1.373408
 11
1.780281
 20
-1.03848
 21
-1.038482
  0
LINE
  8
CONSTRUCTION
 10
1.780281
 11
1.728316
 20
-1.038482
 21
-1.166909
  0
LINE
  8
CONSTRUCTION
 10
1.728316
 11
1.832246
 20
-1.166909
 21
-1.166909
  0
LINE
  8
CONSTRUCTION
 10
1.832246
 11
1.780281
 20
-1.166909
 21
-1.038482
  0
LINE
  8
CONSTRUCTION
 10
0.0
 11
4.0
 20
-1.561751
 21
-1.561751
  0
TEXT
  8
TEXT
 10
0.10065
 20
-1.405784
 30
0.0
 40
0.224
 50
0.0
  1
DOVETAIL DESIGNS
  0
TEXT
  8
TEXT
 10
2.276036
 20
-1.551751
 30
0.0
 40
0.099
 50
0.0
  1
& MILLWORK INC.
  0
TEXT
  8
TEXT
 10
1.092458
 20
-1.640461
 30
0.0
 40
0.07
 50
0.0
  1
Established 1979
  0
TEXT
  8
TEXT
 10
0.1
 20
-1.8
 30
0.0
 40
0.1
 50
0.0
  1
Phone: (406) 248-5010    Website: www.dovetailmt.com
  0
TEXT
  8
TEXT
 10
0.0
 20
-0.25
 30
0.0
 40
0.15625
 50
0.0
  1
HR17
  0
TEXT
  8
TEXT
 10
0.0
 20
-0.5
 30
0.0
 40
0.1
 50
0.0
  1
2-7/16"x1-3/4"
  0
ENDSEC
  0
EOF
