  0
SECTION
  2
ENTITIES
  0
ARC
  8
MOULD-NEW
 10
0.0625
 20
3.5
 40
0.0625
 50
89.999957
 51
180.000043
  0
LINE
  8
MOULD-NEW
 10
0.0
 11
0.0
 20
3.5
 21
1.375
  0
ARC
  8
MOULD-NEW
 10
0.0625
 20
1.375
 40
0.0625
 50
179.999957
 51
270.000043
  0
LINE
  8
MOULD-NEW
 10
0.0625
 11
0.1875
 20
1.3125
 21
1.3125
  0
ARC
  8
MOULD-NEW
 10
0.1875
 20
1.25
 40
0.0625
 50
359.999957
 51
90.000043
  0
LINE
  8
MOULD-NEW
 10
0.25
 11
0.25
 20
1.25
 21
0.9375
  0
ARC
  8
MOULD-NEW
 10
0.1875
 20
0.9375
 40
0.0625
 50
269.999957
 51
0.000043
  0
LINE
  8
MOULD-NEW
 10
0.1875
 11
0.0625
 20
0.875
 21
0.875
  0
ARC
  8
MOULD-NEW
 10
0.0625
 20
0.8125
 40
0.0625
 50
89.999957
 51
180.000043
  0
LINE
  8
MOULD-NEW
 10
0.0
 11
0.0
 20
0.8125
 21
0.125
  0
ARC
  8
MOULD-NEW
 10
0.125
 20
0.125
 40
0.125
 50
179.999957
 51
270.000043
  0
LINE
  8
MOULD-NEW
 10
0.125
 11
1.375
 20
0.0
 21
0.0
  0
ARC
  8
MOULD-NEW
 10
1.375
 20
0.125
 40
0.125
 50
269.999957
 51
0.000043
  0
LINE
  8
MOULD-NEW
 10
1.5
 11
1.5
 20
0.125
 21
3.3125
  0
ARC
  8
MOULD-NEW
 10
1.25
 20
3.3125
 40
0.25
 50
0.0
 51
90.000043
  0
LINE
  8
MOULD-NEW
 10
1.25
 11
1.125
 20
3.5625
 21
3.5625
  0
ARC
  8
MOULD-NEW
 10
1.125
 20
3.625
 40
0.0625
 50
179.999957
 51
270.000043
  0
LINE
  8
MOULD-NEW
 10
1.0625
 11
1.0625
 20
3.625
 21
3.966715
  0
ARC
  8
MOULD-NEW
 10
1.125
 20
3.966715
 40
0.0625
 50
117.486334
 51
180.0
  0
ARC
  8
MOULD-NEW
 10
0.749709
 20
4.687348
 40
0.75
 50
297.511535
 51
117.461348
  0
ARC
  8
MOULD-NEW
 10
0.75
 20
4.6875
 40
0.75
 50
117.486443
 51
180.000002
  0
LINE
  8
MOULD-NEW
 10
0.0
 11
0.0
 20
4.6875
 21
4.0625
  0
ARC
  8
MOULD-NEW
 10
0.0625
 20
4.0625
 40
0.0625
 50
179.999957
 51
270.000043
  0
LINE
  8
MOULD-NEW
 10
0.0625
 11
0.1875
 20
4.0
 21
4.0
  0
ARC
  8
MOULD-NEW
 10
0.1875
 20
3.9375
 40
0.0625
 50
359.999957
 51
90.000043
  0
LINE
  8
MOULD-NEW
 10
0.25
 11
0.25
 20
3.9375
 21
3.625
  0
ARC
  8
MOULD-NEW
 10
0.1875
 20
3.625
 40
0.0625
 50
269.999957
 51
0.000043
  0
LINE
  8
MOULD-NEW
 10
0.1875
 11
0.0625
 20
3.5625
 21
3.5625
  0
LINE
  8
CONSTRUCTION
 10
0.152615
 11
0.10065
 20
-1.038482
 21
-1.166909
  0
LINE
  8
CONSTRUCTION
 10
0.10065
 11
0.20458
 20
-1.166909
 21
-1.166909
  0
LINE
  8
CONSTRUCTION
 10
0.20458
 11
0.152615
 20
-1.166909
 21
-1.038482
  0
LINE
  8
CONSTRUCTION
 10
0.152615
 11
0.559547
 20
-1.038482
 21
-1.03848
  0
LINE
  8
CONSTRUCTION
 10
0.559547
 11
0.507582
 20
-1.03848
 21
-1.166908
  0
LINE
  8
CONSTRUCTION
 10
0.507582
 11
0.611512
 20
-1.166908
 21
-1.166908
  0
LINE
  8
CONSTRUCTION
 10
0.611512
 11
0.559547
 20
-1.166908
 21
-1.03848
  0
LINE
  8
CONSTRUCTION
 10
0.559547
 11
0.966478
 20
-1.03848
 21
-1.03848
  0
LINE
  8
CONSTRUCTION
 10
0.966478
 11
0.914513
 20
-1.03848
 21
-1.166908
  0
LINE
  8
CONSTRUCTION
 10
0.914513
 11
1.018442
 20
-1.166908
 21
-1.166908
  0
LINE
  8
CONSTRUCTION
 10
1.018442
 11
0.966478
 20
-1.166908
 21
-1.03848
  0
LINE
  8
CONSTRUCTION
 10
0.966478
 11
1.373408
 20
-1.03848
 21
-1.03848
  0
LINE
  8
CONSTRUCTION
 10
1.373408
 11
1.321443
 20
-1.03848
 21
-1.166908
  0
LINE
  8
CONSTRUCTION
 10
1.321443
 11
1.425373
 20
-1.166908
 21
-1.166908
  0
LINE
  8
CONSTRUCTION
 10
1.425373
 11
1.373408
 20
-1.166908
 21
-1.03848
  0
LINE
  8
CONSTRUCTION
 10
1.373408
 11
1.780281
 20
-1.03848
 21
-1.038482
  0
LINE
  8
CONSTRUCTION
 10
1.780281
 11
1.728316
 20
-1.038482
 21
-1.166909
  0
LINE
  8
CONSTRUCTION
 10
1.728316
 11
1.832246
 20
-1.166909
 21
-1.166909
  0
LINE
  8
CONSTRUCTION
 10
1.832246
 11
1.780281
 20
-1.166909
 21
-1.038482
  0
LINE
  8
CONSTRUCTION
 10
0.0
 11
4.0
 20
-1.561751
 21
-1.561751
  0
TEXT
  8
TEXT
 10
0.10065
 20
-1.405784
 30
0.0
 40
0.224
 50
0.0
  1
DOVETAIL DESIGNS
  0
TEXT
  8
TEXT
 10
2.276036
 20
-1.551751
 30
0.0
 40
0.099
 50
0.0
  1
& MILLWORK INC.
  0
TEXT
  8
TEXT
 10
1.092458
 20
-1.640461
 30
0.0
 40
0.07
 50
0.0
  1
Established 1979
  0
TEXT
  8
TEXT
 10
0.1
 20
-1.8
 30
0.0
 40
0.1
 50
0.0
  1
Phone: (406) 248-5010    Website: www.dovetailmt.com
  0
TEXT
  8
TEXT
 10
0.0
 20
-0.5
 30
0.0
 40
0.1
 50
0.0
  1
1-1/2"x5-7/16"
  0
TEXT
  8
TEXT
 10
0.0
 20
-0.25
 30
0.0
 40
0.15625
 50
0.0
  1
HR10
  0
ENDSEC
  0
EOF
