  0
SECTION
  2
ENTITIES
  0
LINE
  8
APS_GEOMETRY
 10
0.0
 11
36.0
 20
0.0
 21
0.0
  0
LINE
  8
APS_GEOMETRY
 10
36.0
 11
36.0
 20
0.0
 21
30.0
  0
LINE
  8
APS_GEOMETRY
 10
36.0
 11
0.0
 20
30.0
 21
30.0
  0
LINE
  8
APS_GEOMETRY
 10
0.0
 11
0.0
 20
30.0
 21
0.0
  0
LINE
  8
APS_GEOMETRY
 10
0.0625
 11
0.0625
 20
0.0
 21
29.875
  0
LINE
  8
APS_GEOMETRY
 10
0.0625
 11
17.9375
 20
29.875
 21
29.875
  0
LINE
  8
APS_GEOMETRY
 10
17.9375
 11
17.9375
 20
29.875
 21
0.0
  0
LINE
  8
APS_GEOMETRY
 10
18.0625
 11
18.0625
 20
0.0
 21
29.875
  0
LINE
  8
APS_GEOMETRY
 10
18.0625
 11
35.9375
 20
29.875
 21
29.875
  0
LINE
  8
APS_GEOMETRY
 10
35.9375
 11
35.9375
 20
29.875
 21
0.0
  0
ARC
  8
APS_GEOMETRY
 10
15.9375
 20
6.0
 40
0.125
 50
0.0
 51
180.0
  0
LINE
  8
APS_GEOMETRY
 10
15.8125
 11
15.8125
 20
6.0
 21
2.0
  0
ARC
  8
APS_GEOMETRY
 10
15.9375
 20
2.0
 40
0.125
 50
180.0
 51
0.0
  0
LINE
  8
APS_GEOMETRY
 10
16.0625
 11
16.0625
 20
2.0
 21
6.0
  0
ARC
  8
APS_GEOMETRY
 10
20.0625
 20
6.0
 40
0.125
 50
0.0
 51
180.0
  0
LINE
  8
APS_GEOMETRY
 10
19.9375
 11
19.9375
 20
6.0
 21
2.0
  0
ARC
  8
APS_GEOMETRY
 10
20.0625
 20
2.0
 40
0.125
 50
180.0
 51
0.0
  0
LINE
  8
APS_GEOMETRY
 10
20.1875
 11
20.1875
 20
2.0
 21
6.0
  0
LINE
  8
APS_GEOMETRY
 10
0.0
 11
36.0
 20
42.75
 21
42.75
  0
LINE
  8
APS_GEOMETRY
 10
36.0
 11
36.0
 20
42.75
 21
56.0
  0
LINE
  8
APS_GEOMETRY
 10
36.0
 11
0.0
 20
56.0
 21
56.0
  0
LINE
  8
APS_GEOMETRY
 10
0.0
 11
0.0
 20
56.0
 21
42.75
  0
LINE
  8
APS_GEOMETRY
 10
0.5
 11
35.5
 20
55.0
 21
55.0
  0
LINE
  8
APS_GEOMETRY
 10
35.5
 11
35.5
 20
55.0
 21
55.25
  0
LINE
  8
APS_GEOMETRY
 10
35.5
 11
0.5
 20
55.25
 21
55.25
  0
LINE
  8
APS_GEOMETRY
 10
0.5
 11
0.5
 20
55.25
 21
55.0
  0
LINE
  8
APS_GEOMETRY
 10
0.75
 11
0.75
 20
42.75
 21
55.0
  0
LINE
  8
APS_GEOMETRY
 10
0.75
 11
0.75
 20
55.25
 21
56.0
  0
LINE
  8
APS_GEOMETRY
 10
35.25
 11
35.25
 20
42.75
 21
55.0
  0
LINE
  8
APS_GEOMETRY
 10
35.25
 11
35.25
 20
55.25
 21
56.0
  0
LINE
  8
APS_GEOMETRY
 10
0.0625
 11
0.0625
 20
42.75
 21
42.0
  0
LINE
  8
APS_GEOMETRY
 10
0.0625
 11
17.9375
 20
42.0
 21
42.0
  0
LINE
  8
APS_GEOMETRY
 10
17.9375
 11
17.9375
 20
42.0
 21
42.75
  0
LINE
  8
APS_GEOMETRY
 10
18.0625
 11
18.0625
 20
42.75
 21
42.0
  0
LINE
  8
APS_GEOMETRY
 10
18.0625
 11
35.9375
 20
42.0
 21
42.0
  0
LINE
  8
APS_GEOMETRY
 10
35.9375
 11
35.9375
 20
42.0
 21
42.75
  0
LINE
  8
APS_GEOMETRY
 10
15.8125
 11
15.8125
 20
42.0
 21
40.875
  0
ARC
  8
APS_GEOMETRY
 10
15.9375
 20
40.875
 40
0.125
 50
180.0
 51
0.0
  0
LINE
  8
APS_GEOMETRY
 10
16.0625
 11
16.0625
 20
40.875
 21
42.0
  0
LINE
  8
APS_GEOMETRY
 10
19.9375
 11
19.9375
 20
42.0
 21
40.875
  0
ARC
  8
APS_GEOMETRY
 10
20.0625
 20
40.875
 40
0.125
 50
180.0
 51
0.0
  0
LINE
  8
APS_GEOMETRY
 10
20.1875
 11
20.1875
 20
40.875
 21
42.0
  0
LINE
  8
APS_GEOMETRY
 10
48.75
 11
48.0
 20
29.875
 21
29.875
  0
LINE
  8
APS_GEOMETRY
 10
48.0
 11
48.0
 20
29.875
 21
0.0
  0
LINE
  8
APS_GEOMETRY
 10
48.0
 11
62.0
 20
0.0
 21
0.0
  0
LINE
  8
APS_GEOMETRY
 10
62.0
 11
62.0
 20
0.0
 21
30.0
  0
LINE
  8
APS_GEOMETRY
 10
62.0
 11
48.75
 20
30.0
 21
30.0
  0
LINE
  8
APS_GEOMETRY
 10
48.75
 11
48.75
 20
30.0
 21
0.0
  0
LINE
  8
APS_GEOMETRY
 10
61.0
 11
61.0
 20
30.0
 21
0.5
  0
LINE
  8
APS_GEOMETRY
 10
61.0
 11
61.25
 20
0.5
 21
0.5
  0
LINE
  8
APS_GEOMETRY
 10
61.25
 11
61.25
 20
0.5
 21
30.0
  0
LINE
  8
APS_GEOMETRY
 10
61.0
 11
48.875
 20
14.309055
 21
14.309055
  0
LINE
  8
APS_GEOMETRY
 10
48.875
 11
48.875
 20
14.309055
 21
15.059055
  0
LINE
  8
APS_GEOMETRY
 10
48.875
 11
61.0
 20
15.059055
 21
15.059055
  0
LINE
  8
APS_GEOMETRY
 10
48.75
 11
61.0
 20
0.75
 21
0.75
  0
LINE
  8
APS_GEOMETRY
 10
48.75
 11
61.0
 20
29.25
 21
29.25
  0
LINE
  8
APS_GEOMETRY
 10
61.25
 11
62.0
 20
0.75
 21
0.75
  0
LINE
  8
APS_GEOMETRY
 10
61.25
 11
62.0
 20
4.75
 21
4.75
  0
LINE
  8
APS_GEOMETRY
 10
61.25
 11
62.0
 20
26.0
 21
26.0
  0
CIRCLE
  8
APS_GEOMETRY
 10
59.75
 20
6.75
 40
0.098425
  0
CIRCLE
  8
APS_GEOMETRY
 10
59.75
 20
8.009843
 40
0.098425
  0
CIRCLE
  8
APS_GEOMETRY
 10
59.75
 20
9.269685
 40
0.098425
  0
CIRCLE
  8
APS_GEOMETRY
 10
59.75
 20
10.529528
 40
0.098425
  0
CIRCLE
  8
APS_GEOMETRY
 10
59.75
 20
11.78937
 40
0.098425
  0
CIRCLE
  8
APS_GEOMETRY
 10
59.75
 20
13.049213
 40
0.098425
  0
CIRCLE
  8
APS_GEOMETRY
 10
59.75
 20
14.309055
 40
0.098425
  0
CIRCLE
  8
APS_GEOMETRY
 10
59.75
 20
15.568898
 40
0.098425
  0
CIRCLE
  8
APS_GEOMETRY
 10
59.75
 20
16.82874
 40
0.098425
  0
CIRCLE
  8
APS_GEOMETRY
 10
59.75
 20
18.088583
 40
0.098425
  0
CIRCLE
  8
APS_GEOMETRY
 10
59.75
 20
19.348425
 40
0.098425
  0
CIRCLE
  8
APS_GEOMETRY
 10
59.75
 20
20.608268
 40
0.098425
  0
CIRCLE
  8
APS_GEOMETRY
 10
59.75
 20
21.86811
 40
0.098425
  0
CIRCLE
  8
APS_GEOMETRY
 10
59.75
 20
23.127953
 40
0.098425
  0
CIRCLE
  8
APS_GEOMETRY
 10
50.0
 20
6.75
 40
0.098425
  0
CIRCLE
  8
APS_GEOMETRY
 10
50.0
 20
8.009843
 40
0.098425
  0
CIRCLE
  8
APS_GEOMETRY
 10
50.0
 20
9.269685
 40
0.098425
  0
CIRCLE
  8
APS_GEOMETRY
 10
50.0
 20
10.529528
 40
0.098425
  0
CIRCLE
  8
APS_GEOMETRY
 10
50.0
 20
11.78937
 40
0.098425
  0
CIRCLE
  8
APS_GEOMETRY
 10
50.0
 20
13.049213
 40
0.098425
  0
CIRCLE
  8
APS_GEOMETRY
 10
50.0
 20
14.309055
 40
0.098425
  0
CIRCLE
  8
APS_GEOMETRY
 10
50.0
 20
15.568898
 40
0.098425
  0
CIRCLE
  8
APS_GEOMETRY
 10
50.0
 20
16.82874
 40
0.098425
  0
CIRCLE
  8
APS_GEOMETRY
 10
50.0
 20
18.088583
 40
0.098425
  0
CIRCLE
  8
APS_GEOMETRY
 10
50.0
 20
19.348425
 40
0.098425
  0
CIRCLE
  8
APS_GEOMETRY
 10
50.0
 20
20.608268
 40
0.098425
  0
CIRCLE
  8
APS_GEOMETRY
 10
50.0
 20
21.86811
 40
0.098425
  0
CIRCLE
  8
APS_GEOMETRY
 10
50.0
 20
23.127953
 40
0.098425
  0
LINE
  8
APS_GEOMETRY
 10
48.0
 11
47.25
 20
2.125
 21
2.125
  0
ARC
  8
APS_GEOMETRY
 10
47.25
 20
2.375
 40
0.25
 50
180.0
 51
270.0
  0
LINE
  8
APS_GEOMETRY
 10
47.0
 11
47.0
 20
2.375
 21
5.625
  0
ARC
  8
APS_GEOMETRY
 10
47.25
 20
5.625
 40
0.25
 50
90.0
 51
180.0
  0
LINE
  8
APS_GEOMETRY
 10
47.25
 11
48.0
 20
5.875
 21
5.875
  0
LINE
  8
APS_GEOMETRY
 10
48.0
 11
47.25
 20
6.125
 21
6.125
  0
ARC
  8
APS_GEOMETRY
 10
47.25
 20
5.625
 40
0.5
 50
90.0
 51
180.0
  0
LINE
  8
APS_GEOMETRY
 10
46.75
 11
46.75
 20
5.625
 21
2.375
  0
ARC
  8
APS_GEOMETRY
 10
47.25
 20
2.375
 40
0.5
 50
180.0
 51
270.0
  0
LINE
  8
APS_GEOMETRY
 10
47.25
 11
48.0
 20
1.875
 21
1.875
  0
LINE
  8
DIMENSIONS
 10
0.0
 11
0.0
 20
56.5
 21
60.5
  0
LINE
  8
DIMENSIONS
 10
36.0
 11
36.0
 20
56.5
 21
60.5
  0
LINE
  8
DIMENSIONS
 10
0.0
 11
6.0
 20
60.0
 21
60.0
  0
LINE
  8
DIMENSIONS
 10
30.0
 11
36.0
 20
60.0
 21
60.0
  0
LINE
  8
DIMENSIONS
 10
1.0
 11
0.0
 20
59.8333
 21
60.0
  0
LINE
  8
DIMENSIONS
 10
0.0
 11
1.0
 20
60.0
 21
60.1667
  0
LINE
  8
DIMENSIONS
 10
1.0
 11
1.0
 20
60.1667
 21
59.8333
  0
LINE
  8
DIMENSIONS
 10
35.0
 11
36.0
 20
60.1667
 21
60.0
  0
LINE
  8
DIMENSIONS
 10
36.0
 11
35.0
 20
60.0
 21
59.8333
  0
LINE
  8
DIMENSIONS
 10
35.0
 11
35.0
 20
59.8333
 21
60.1667
  0
LINE
  8
CONSTRUCTION
 10
13.831379
 11
13.2078
 20
-12.46178
 21
-14.002913
  0
LINE
  8
CONSTRUCTION
 10
13.2078
 11
14.454958
 20
-14.002913
 21
-14.002913
  0
LINE
  8
CONSTRUCTION
 10
14.454958
 11
13.831379
 20
-14.002913
 21
-12.46178
  0
LINE
  8
CONSTRUCTION
 10
13.831379
 11
18.714561
 20
-12.46178
 21
-12.461764
  0
LINE
  8
CONSTRUCTION
 10
18.714561
 11
18.090982
 20
-12.461764
 21
-14.002897
  0
LINE
  8
CONSTRUCTION
 10
18.090982
 11
19.33814
 20
-14.002897
 21
-14.002897
  0
LINE
  8
CONSTRUCTION
 10
19.33814
 11
18.714561
 20
-14.002897
 21
-12.461764
  0
LINE
  8
CONSTRUCTION
 10
18.714561
 11
23.597731
 20
-12.461764
 21
-12.461764
  0
LINE
  8
CONSTRUCTION
 10
23.597731
 11
22.974152
 20
-12.461764
 21
-14.002897
  0
LINE
  8
CONSTRUCTION
 10
22.974152
 11
24.22131
 20
-14.002897
 21
-14.002897
  0
LINE
  8
CONSTRUCTION
 10
24.22131
 11
23.597731
 20
-14.002897
 21
-12.461764
  0
LINE
  8
CONSTRUCTION
 10
23.597731
 11
28.480901
 20
-12.461764
 21
-12.461764
  0
LINE
  8
CONSTRUCTION
 10
28.480901
 11
27.857322
 20
-12.461764
 21
-14.002897
  0
LINE
  8
CONSTRUCTION
 10
27.857322
 11
29.10448
 20
-14.002897
 21
-14.002897
  0
LINE
  8
CONSTRUCTION
 10
29.10448
 11
28.480901
 20
-14.002897
 21
-12.461764
  0
LINE
  8
CONSTRUCTION
 10
28.480901
 11
33.363373
 20
-12.461764
 21
-12.46178
  0
LINE
  8
CONSTRUCTION
 10
33.363373
 11
32.739794
 20
-12.46178
 21
-14.002913
  0
LINE
  8
CONSTRUCTION
 10
32.739794
 11
33.986952
 20
-14.002913
 21
-14.002913
  0
LINE
  8
CONSTRUCTION
 10
33.986952
 11
33.363373
 20
-14.002913
 21
-12.46178
  0
LINE
  8
CONSTRUCTION
 10
12.0
 11
60.0
 20
-18.74101
 21
-18.74101
  0
TEXT
  8
TEXT
 10
18.0
 20
59.5
 30
0.0
 40
1.0
 50
0.0
  1
CABINETS EXCEEDING 36" WIDE
  0
TEXT
  8
TEXT
 10
18.0
 20
58.0
 30
0.0
 40
1.0
 50
0.0
  1
WILL NEED A PARTITION
  0
TEXT
  8
TEXT
 10
13.2078
 20
-16.869403
 30
0.0
 40
2.688
 50
0.0
  1
DOVETAIL DESIGNS
  0
TEXT
  8
TEXT
 10
39.312436
 20
-18.62101
 30
0.0
 40
1.188
 50
0.0
  1
& MILLWORK INC.
  0
TEXT
  8
TEXT
 10
25.109495
 20
-19.685533
 30
0.0
 40
0.84
 50
0.0
  1
Established 1979
  0
TEXT
  8
TEXT
 10
13.2
 20
-21.6
 30
0.0
 40
1.2
 50
0.0
  1
Phone: (406) 248-5010    Website: www.dovetailmt.com
  0
ENDSEC
  0
EOF
