  0
SECTION
  2
ENTITIES
  0
LINE
  8
APS_GEOMETRY
 10
0.5
 11
35.5
 20
127.0
 21
127.0
  0
LINE
  8
APS_GEOMETRY
 10
35.5
 11
35.5
 20
127.0
 21
127.25
  0
LINE
  8
APS_GEOMETRY
 10
35.5
 11
0.5
 20
127.25
 21
127.25
  0
LINE
  8
APS_GEOMETRY
 10
0.5
 11
0.5
 20
127.25
 21
127.0
  0
LINE
  8
APS_GEOMETRY
 10
0.0
 11
36.0
 20
102.75
 21
102.75
  0
LINE
  8
APS_GEOMETRY
 10
36.0
 11
36.0
 20
102.75
 21
128.0
  0
LINE
  8
APS_GEOMETRY
 10
36.0
 11
0.0
 20
128.0
 21
128.0
  0
LINE
  8
APS_GEOMETRY
 10
0.0
 11
0.0
 20
128.0
 21
102.75
  0
LINE
  8
APS_GEOMETRY
 10
0.75
 11
0.75
 20
102.75
 21
127.0
  0
LINE
  8
APS_GEOMETRY
 10
0.75
 11
0.75
 20
127.25
 21
128.0
  0
LINE
  8
APS_GEOMETRY
 10
35.25
 11
35.25
 20
102.75
 21
127.0
  0
LINE
  8
APS_GEOMETRY
 10
35.25
 11
35.25
 20
127.25
 21
128.0
  0
LINE
  8
APS_GEOMETRY
 10
0.0625
 11
0.0625
 20
102.75
 21
102.0
  0
LINE
  8
APS_GEOMETRY
 10
0.0625
 11
17.9375
 20
102.0
 21
102.0
  0
LINE
  8
APS_GEOMETRY
 10
17.9375
 11
17.9375
 20
102.0
 21
102.75
  0
LINE
  8
APS_GEOMETRY
 10
18.0625
 11
18.0625
 20
102.75
 21
102.0
  0
LINE
  8
APS_GEOMETRY
 10
18.0625
 11
35.9375
 20
102.0
 21
102.0
  0
LINE
  8
APS_GEOMETRY
 10
35.9375
 11
35.9375
 20
102.0
 21
102.75
  0
LINE
  8
APS_GEOMETRY
 10
15.8125
 11
15.8125
 20
102.0
 21
100.875
  0
ARC
  8
APS_GEOMETRY
 10
15.9375
 20
100.875
 40
0.125
 50
180.0
 51
0.0
  0
LINE
  8
APS_GEOMETRY
 10
16.0625
 11
16.0625
 20
100.875
 21
102.0
  0
LINE
  8
APS_GEOMETRY
 10
19.9375
 11
19.9375
 20
102.0
 21
100.875
  0
ARC
  8
APS_GEOMETRY
 10
20.0625
 20
100.875
 40
0.125
 50
180.0
 51
0.0
  0
LINE
  8
APS_GEOMETRY
 10
20.1875
 11
20.1875
 20
100.875
 21
102.0
  0
LINE
  8
APS_GEOMETRY
 10
0.0
 11
36.0
 20
4.0
 21
4.0
  0
LINE
  8
APS_GEOMETRY
 10
36.0
 11
36.0
 20
4.0
 21
90.0
  0
LINE
  8
APS_GEOMETRY
 10
36.0
 11
0.0
 20
90.0
 21
90.0
  0
LINE
  8
APS_GEOMETRY
 10
0.0
 11
0.0
 20
90.0
 21
4.0
  0
LINE
  8
APS_GEOMETRY
 10
0.0625
 11
17.9375
 20
34.5
 21
34.5
  0
LINE
  8
APS_GEOMETRY
 10
17.9375
 11
17.9375
 20
34.5
 21
89.875
  0
LINE
  8
APS_GEOMETRY
 10
17.9375
 11
0.0625
 20
89.875
 21
89.875
  0
LINE
  8
APS_GEOMETRY
 10
0.0625
 11
0.0625
 20
89.875
 21
34.5
  0
LINE
  8
APS_GEOMETRY
 10
18.0625
 11
35.9375
 20
34.5
 21
34.5
  0
LINE
  8
APS_GEOMETRY
 10
35.9375
 11
35.9375
 20
34.5
 21
89.875
  0
LINE
  8
APS_GEOMETRY
 10
35.9375
 11
18.0625
 20
89.875
 21
89.875
  0
LINE
  8
APS_GEOMETRY
 10
18.0625
 11
18.0625
 20
89.875
 21
34.5
  0
LINE
  8
APS_GEOMETRY
 10
0.0625
 11
0.0625
 20
4.0
 21
34.375
  0
LINE
  8
APS_GEOMETRY
 10
0.0625
 11
17.9375
 20
34.375
 21
34.375
  0
LINE
  8
APS_GEOMETRY
 10
17.9375
 11
17.9375
 20
34.375
 21
4.0
  0
LINE
  8
APS_GEOMETRY
 10
18.0625
 11
18.0625
 20
4.0
 21
34.375
  0
LINE
  8
APS_GEOMETRY
 10
18.0625
 11
35.9375
 20
34.375
 21
34.375
  0
LINE
  8
APS_GEOMETRY
 10
35.9375
 11
35.9375
 20
34.375
 21
4.0
  0
LINE
  8
APS_GEOMETRY
 10
1.0
 11
1.0
 20
4.0
 21
0.0
  0
LINE
  8
APS_GEOMETRY
 10
1.0
 11
35.0
 20
0.0
 21
0.0
  0
LINE
  8
APS_GEOMETRY
 10
35.0
 11
35.0
 20
0.0
 21
4.0
  0
ARC
  8
APS_GEOMETRY
 10
15.9375
 20
32.375
 40
0.125
 50
0.0
 51
180.0
  0
LINE
  8
APS_GEOMETRY
 10
15.8125
 11
15.8125
 20
32.375
 21
28.375
  0
ARC
  8
APS_GEOMETRY
 10
15.9375
 20
28.375
 40
0.125
 50
180.0
 51
0.0
  0
LINE
  8
APS_GEOMETRY
 10
16.0625
 11
16.0625
 20
28.375
 21
32.375
  0
ARC
  8
APS_GEOMETRY
 10
20.0625
 20
32.375
 40
0.125
 50
0.0
 51
180.0
  0
LINE
  8
APS_GEOMETRY
 10
19.9375
 11
19.9375
 20
32.375
 21
28.375
  0
ARC
  8
APS_GEOMETRY
 10
20.0625
 20
28.375
 40
0.125
 50
180.0
 51
0.0
  0
LINE
  8
APS_GEOMETRY
 10
20.1875
 11
20.1875
 20
28.375
 21
32.375
  0
ARC
  8
APS_GEOMETRY
 10
15.9375
 20
40.5
 40
0.125
 50
0.0
 51
180.0
  0
LINE
  8
APS_GEOMETRY
 10
15.8125
 11
15.8125
 20
40.5
 21
36.5
  0
ARC
  8
APS_GEOMETRY
 10
15.9375
 20
36.5
 40
0.125
 50
180.0
 51
0.0
  0
LINE
  8
APS_GEOMETRY
 10
16.0625
 11
16.0625
 20
36.5
 21
40.5
  0
ARC
  8
APS_GEOMETRY
 10
20.0625
 20
40.5
 40
0.125
 50
0.0
 51
180.0
  0
LINE
  8
APS_GEOMETRY
 10
19.9375
 11
19.9375
 20
40.5
 21
36.5
  0
ARC
  8
APS_GEOMETRY
 10
20.0625
 20
36.5
 40
0.125
 50
180.0
 51
0.0
  0
LINE
  8
APS_GEOMETRY
 10
20.1875
 11
20.1875
 20
36.5
 21
40.5
  0
LINE
  8
APS_GEOMETRY
 10
48.75
 11
48.0
 20
34.375
 21
34.375
  0
LINE
  8
APS_GEOMETRY
 10
48.0
 11
48.0
 20
34.375
 21
4.0
  0
LINE
  8
APS_GEOMETRY
 10
48.0
 11
74.0
 20
4.0
 21
4.0
  0
LINE
  8
APS_GEOMETRY
 10
73.25
 11
73.25
 20
4.0
 21
0.0
  0
LINE
  8
APS_GEOMETRY
 10
73.25
 11
74.0
 20
0.0
 21
0.0
  0
LINE
  8
APS_GEOMETRY
 10
74.0
 11
74.0
 20
0.0
 21
90.0
  0
LINE
  8
APS_GEOMETRY
 10
74.0
 11
48.75
 20
90.0
 21
90.0
  0
LINE
  8
APS_GEOMETRY
 10
48.75
 11
48.75
 20
90.0
 21
4.0
  0
LINE
  8
APS_GEOMETRY
 10
73.0
 11
73.0
 20
90.0
 21
4.5
  0
LINE
  8
APS_GEOMETRY
 10
73.0
 11
73.25
 20
4.5
 21
4.5
  0
LINE
  8
APS_GEOMETRY
 10
73.25
 11
73.25
 20
4.5
 21
90.0
  0
LINE
  8
APS_GEOMETRY
 10
48.75
 11
48.0
 20
34.5
 21
34.5
  0
LINE
  8
APS_GEOMETRY
 10
48.0
 11
48.0
 20
34.5
 21
89.875
  0
LINE
  8
APS_GEOMETRY
 10
48.0
 11
48.75
 20
89.875
 21
89.875
  0
LINE
  8
APS_GEOMETRY
 10
53.0
 11
53.0
 20
4.0
 21
0.0
  0
LINE
  8
APS_GEOMETRY
 10
53.0
 11
53.75
 20
0.0
 21
0.0
  0
LINE
  8
APS_GEOMETRY
 10
53.75
 11
53.75
 20
0.0
 21
4.0
  0
LINE
  8
APS_GEOMETRY
 10
53.75
 11
55.75
 20
3.25
 21
3.25
  0
LINE
  8
APS_GEOMETRY
 10
55.75
 11
55.75
 20
3.25
 21
4.0
  0
LINE
  8
APS_GEOMETRY
 10
71.25
 11
71.25
 20
4.0
 21
3.25
  0
LINE
  8
APS_GEOMETRY
 10
71.25
 11
73.25
 20
3.25
 21
3.25
  0
LINE
  8
APS_GEOMETRY
 10
53.75
 11
73.25
 20
0.5
 21
0.5
  0
LINE
  8
APS_GEOMETRY
 10
73.0
 11
48.875
 20
19.568898
 21
19.568898
  0
LINE
  8
APS_GEOMETRY
 10
48.875
 11
48.875
 20
19.568898
 21
20.318898
  0
LINE
  8
APS_GEOMETRY
 10
48.875
 11
73.0
 20
20.318898
 21
20.318898
  0
LINE
  8
APS_GEOMETRY
 10
73.0
 11
48.875
 20
52.151083
 21
52.151083
  0
LINE
  8
APS_GEOMETRY
 10
48.875
 11
48.875
 20
52.151083
 21
52.901083
  0
LINE
  8
APS_GEOMETRY
 10
48.875
 11
73.0
 20
52.901083
 21
52.901083
  0
LINE
  8
APS_GEOMETRY
 10
73.0
 11
48.875
 20
71.04872
 21
71.04872
  0
LINE
  8
APS_GEOMETRY
 10
48.875
 11
48.875
 20
71.04872
 21
71.79872
  0
LINE
  8
APS_GEOMETRY
 10
48.875
 11
73.0
 20
71.79872
 21
71.79872
  0
LINE
  8
APS_GEOMETRY
 10
48.75
 11
73.0
 20
4.75
 21
4.75
  0
LINE
  8
APS_GEOMETRY
 10
48.75
 11
73.0
 20
89.25
 21
89.25
  0
LINE
  8
APS_GEOMETRY
 10
48.75
 11
73.0
 20
34.0625
 21
34.0625
  0
LINE
  8
APS_GEOMETRY
 10
48.75
 11
73.0
 20
34.8125
 21
34.8125
  0
LINE
  8
APS_GEOMETRY
 10
73.25
 11
74.0
 20
4.75
 21
4.75
  0
LINE
  8
APS_GEOMETRY
 10
73.25
 11
74.0
 20
8.75
 21
8.75
  0
LINE
  8
APS_GEOMETRY
 10
73.25
 11
74.0
 20
86.0
 21
86.0
  0
CIRCLE
  8
APS_GEOMETRY
 10
71.75
 20
10.75
 40
0.098425
  0
CIRCLE
  8
APS_GEOMETRY
 10
71.75
 20
12.009843
 40
0.098425
  0
CIRCLE
  8
APS_GEOMETRY
 10
71.75
 20
13.269685
 40
0.098425
  0
CIRCLE
  8
APS_GEOMETRY
 10
71.75
 20
14.529528
 40
0.098425
  0
CIRCLE
  8
APS_GEOMETRY
 10
71.75
 20
15.78937
 40
0.098425
  0
CIRCLE
  8
APS_GEOMETRY
 10
71.75
 20
17.049213
 40
0.098425
  0
CIRCLE
  8
APS_GEOMETRY
 10
71.75
 20
18.309055
 40
0.098425
  0
CIRCLE
  8
APS_GEOMETRY
 10
71.75
 20
19.568898
 40
0.098425
  0
CIRCLE
  8
APS_GEOMETRY
 10
71.75
 20
20.82874
 40
0.098425
  0
CIRCLE
  8
APS_GEOMETRY
 10
50.0
 20
10.75
 40
0.098425
  0
CIRCLE
  8
APS_GEOMETRY
 10
50.0
 20
12.009843
 40
0.098425
  0
CIRCLE
  8
APS_GEOMETRY
 10
50.0
 20
13.269685
 40
0.098425
  0
CIRCLE
  8
APS_GEOMETRY
 10
50.0
 20
14.529528
 40
0.098425
  0
CIRCLE
  8
APS_GEOMETRY
 10
50.0
 20
15.78937
 40
0.098425
  0
CIRCLE
  8
APS_GEOMETRY
 10
50.0
 20
17.049213
 40
0.098425
  0
CIRCLE
  8
APS_GEOMETRY
 10
50.0
 20
18.309055
 40
0.098425
  0
CIRCLE
  8
APS_GEOMETRY
 10
50.0
 20
19.568898
 40
0.098425
  0
CIRCLE
  8
APS_GEOMETRY
 10
50.0
 20
20.82874
 40
0.098425
  0
CIRCLE
  8
APS_GEOMETRY
 10
71.75
 20
22.088583
 40
0.098425
  0
CIRCLE
  8
APS_GEOMETRY
 10
50.0
 20
22.088583
 40
0.098425
  0
CIRCLE
  8
APS_GEOMETRY
 10
71.75
 20
23.348425
 40
0.098425
  0
CIRCLE
  8
APS_GEOMETRY
 10
50.0
 20
23.348425
 40
0.098425
  0
CIRCLE
  8
APS_GEOMETRY
 10
71.75
 20
24.608268
 40
0.098425
  0
CIRCLE
  8
APS_GEOMETRY
 10
50.0
 20
24.608268
 40
0.098425
  0
CIRCLE
  8
APS_GEOMETRY
 10
71.75
 20
25.86811
 40
0.098425
  0
CIRCLE
  8
APS_GEOMETRY
 10
50.0
 20
25.86811
 40
0.098425
  0
CIRCLE
  8
APS_GEOMETRY
 10
71.75
 20
27.127953
 40
0.098425
  0
CIRCLE
  8
APS_GEOMETRY
 10
50.0
 20
27.127953
 40
0.098425
  0
CIRCLE
  8
APS_GEOMETRY
 10
71.75
 20
40.8125
 40
0.098425
  0
CIRCLE
  8
APS_GEOMETRY
 10
71.75
 20
42.072343
 40
0.098425
  0
CIRCLE
  8
APS_GEOMETRY
 10
71.75
 20
43.332185
 40
0.098425
  0
CIRCLE
  8
APS_GEOMETRY
 10
71.75
 20
44.592028
 40
0.098425
  0
CIRCLE
  8
APS_GEOMETRY
 10
71.75
 20
45.85187
 40
0.098425
  0
CIRCLE
  8
APS_GEOMETRY
 10
71.75
 20
47.111713
 40
0.098425
  0
CIRCLE
  8
APS_GEOMETRY
 10
71.75
 20
48.371555
 40
0.098425
  0
CIRCLE
  8
APS_GEOMETRY
 10
71.75
 20
49.631398
 40
0.098425
  0
CIRCLE
  8
APS_GEOMETRY
 10
71.75
 20
50.89124
 40
0.098425
  0
CIRCLE
  8
APS_GEOMETRY
 10
50.0
 20
40.8125
 40
0.098425
  0
CIRCLE
  8
APS_GEOMETRY
 10
50.0
 20
42.072343
 40
0.098425
  0
CIRCLE
  8
APS_GEOMETRY
 10
50.0
 20
43.332185
 40
0.098425
  0
CIRCLE
  8
APS_GEOMETRY
 10
50.0
 20
44.592028
 40
0.098425
  0
CIRCLE
  8
APS_GEOMETRY
 10
50.0
 20
45.85187
 40
0.098425
  0
CIRCLE
  8
APS_GEOMETRY
 10
50.0
 20
47.111713
 40
0.098425
  0
CIRCLE
  8
APS_GEOMETRY
 10
50.0
 20
48.371555
 40
0.098425
  0
CIRCLE
  8
APS_GEOMETRY
 10
50.0
 20
49.631398
 40
0.098425
  0
CIRCLE
  8
APS_GEOMETRY
 10
50.0
 20
50.89124
 40
0.098425
  0
CIRCLE
  8
APS_GEOMETRY
 10
71.75
 20
52.151083
 40
0.098425
  0
CIRCLE
  8
APS_GEOMETRY
 10
50.0
 20
52.151083
 40
0.098425
  0
CIRCLE
  8
APS_GEOMETRY
 10
71.75
 20
53.410925
 40
0.098425
  0
CIRCLE
  8
APS_GEOMETRY
 10
50.0
 20
53.410925
 40
0.098425
  0
CIRCLE
  8
APS_GEOMETRY
 10
71.75
 20
54.670768
 40
0.098425
  0
CIRCLE
  8
APS_GEOMETRY
 10
50.0
 20
54.670768
 40
0.098425
  0
CIRCLE
  8
APS_GEOMETRY
 10
71.75
 20
55.93061
 40
0.098425
  0
CIRCLE
  8
APS_GEOMETRY
 10
50.0
 20
55.93061
 40
0.098425
  0
CIRCLE
  8
APS_GEOMETRY
 10
71.75
 20
57.190453
 40
0.098425
  0
CIRCLE
  8
APS_GEOMETRY
 10
50.0
 20
57.190453
 40
0.098425
  0
CIRCLE
  8
APS_GEOMETRY
 10
71.75
 20
58.450295
 40
0.098425
  0
CIRCLE
  8
APS_GEOMETRY
 10
50.0
 20
58.450295
 40
0.098425
  0
CIRCLE
  8
APS_GEOMETRY
 10
71.75
 20
59.710138
 40
0.098425
  0
CIRCLE
  8
APS_GEOMETRY
 10
50.0
 20
59.710138
 40
0.098425
  0
CIRCLE
  8
APS_GEOMETRY
 10
71.75
 20
60.96998
 40
0.098425
  0
CIRCLE
  8
APS_GEOMETRY
 10
50.0
 20
60.96998
 40
0.098425
  0
CIRCLE
  8
APS_GEOMETRY
 10
71.75
 20
62.229823
 40
0.098425
  0
CIRCLE
  8
APS_GEOMETRY
 10
50.0
 20
62.229823
 40
0.098425
  0
CIRCLE
  8
APS_GEOMETRY
 10
71.75
 20
63.489665
 40
0.098425
  0
CIRCLE
  8
APS_GEOMETRY
 10
50.0
 20
63.489665
 40
0.098425
  0
CIRCLE
  8
APS_GEOMETRY
 10
71.75
 20
64.749508
 40
0.098425
  0
CIRCLE
  8
APS_GEOMETRY
 10
50.0
 20
64.749508
 40
0.098425
  0
CIRCLE
  8
APS_GEOMETRY
 10
71.75
 20
66.00935
 40
0.098425
  0
CIRCLE
  8
APS_GEOMETRY
 10
50.0
 20
66.00935
 40
0.098425
  0
CIRCLE
  8
APS_GEOMETRY
 10
71.75
 20
67.269193
 40
0.098425
  0
CIRCLE
  8
APS_GEOMETRY
 10
50.0
 20
67.269193
 40
0.098425
  0
CIRCLE
  8
APS_GEOMETRY
 10
71.75
 20
68.529035
 40
0.098425
  0
CIRCLE
  8
APS_GEOMETRY
 10
50.0
 20
68.529035
 40
0.098425
  0
CIRCLE
  8
APS_GEOMETRY
 10
71.75
 20
69.788878
 40
0.098425
  0
CIRCLE
  8
APS_GEOMETRY
 10
50.0
 20
69.788878
 40
0.098425
  0
CIRCLE
  8
APS_GEOMETRY
 10
71.75
 20
71.04872
 40
0.098425
  0
CIRCLE
  8
APS_GEOMETRY
 10
50.0
 20
71.04872
 40
0.098425
  0
CIRCLE
  8
APS_GEOMETRY
 10
71.75
 20
72.308563
 40
0.098425
  0
CIRCLE
  8
APS_GEOMETRY
 10
50.0
 20
72.308563
 40
0.098425
  0
CIRCLE
  8
APS_GEOMETRY
 10
71.75
 20
73.568406
 40
0.098425
  0
CIRCLE
  8
APS_GEOMETRY
 10
50.0
 20
73.568406
 40
0.098425
  0
CIRCLE
  8
APS_GEOMETRY
 10
71.75
 20
74.828248
 40
0.098425
  0
CIRCLE
  8
APS_GEOMETRY
 10
50.0
 20
74.828248
 40
0.098425
  0
CIRCLE
  8
APS_GEOMETRY
 10
71.75
 20
76.088091
 40
0.098425
  0
CIRCLE
  8
APS_GEOMETRY
 10
50.0
 20
76.088091
 40
0.098425
  0
CIRCLE
  8
APS_GEOMETRY
 10
71.75
 20
77.347933
 40
0.098425
  0
CIRCLE
  8
APS_GEOMETRY
 10
50.0
 20
77.347933
 40
0.098425
  0
CIRCLE
  8
APS_GEOMETRY
 10
71.75
 20
78.607776
 40
0.098425
  0
CIRCLE
  8
APS_GEOMETRY
 10
50.0
 20
78.607776
 40
0.098425
  0
CIRCLE
  8
APS_GEOMETRY
 10
71.75
 20
79.867618
 40
0.098425
  0
CIRCLE
  8
APS_GEOMETRY
 10
50.0
 20
79.867618
 40
0.098425
  0
CIRCLE
  8
APS_GEOMETRY
 10
71.75
 20
81.127461
 40
0.098425
  0
CIRCLE
  8
APS_GEOMETRY
 10
50.0
 20
81.127461
 40
0.098425
  0
CIRCLE
  8
APS_GEOMETRY
 10
71.75
 20
82.387303
 40
0.098425
  0
CIRCLE
  8
APS_GEOMETRY
 10
50.0
 20
82.387303
 40
0.098425
  0
LINE
  8
APS_GEOMETRY
 10
48.0
 11
47.25
 20
28.5
 21
28.5
  0
ARC
  8
APS_GEOMETRY
 10
47.25
 20
28.75
 40
0.25
 50
180.0
 51
270.0
  0
LINE
  8
APS_GEOMETRY
 10
47.0
 11
47.0
 20
28.75
 21
32.0
  0
ARC
  8
APS_GEOMETRY
 10
47.25
 20
32.0
 40
0.25
 50
90.0
 51
180.0
  0
LINE
  8
APS_GEOMETRY
 10
47.25
 11
48.0
 20
32.25
 21
32.25
  0
LINE
  8
APS_GEOMETRY
 10
48.0
 11
47.25
 20
32.5
 21
32.5
  0
ARC
  8
APS_GEOMETRY
 10
47.25
 20
32.0
 40
0.5
 50
90.0
 51
180.0
  0
LINE
  8
APS_GEOMETRY
 10
46.75
 11
46.75
 20
32.0
 21
28.75
  0
ARC
  8
APS_GEOMETRY
 10
47.25
 20
28.75
 40
0.5
 50
180.0
 51
270.0
  0
LINE
  8
APS_GEOMETRY
 10
47.25
 11
48.0
 20
28.25
 21
28.25
  0
LINE
  8
APS_GEOMETRY
 10
48.0
 11
47.25
 20
36.625
 21
36.625
  0
ARC
  8
APS_GEOMETRY
 10
47.25
 20
36.875
 40
0.25
 50
180.0
 51
270.0
  0
LINE
  8
APS_GEOMETRY
 10
47.0
 11
47.0
 20
36.875
 21
40.125
  0
ARC
  8
APS_GEOMETRY
 10
47.25
 20
40.125
 40
0.25
 50
90.0
 51
180.0
  0
LINE
  8
APS_GEOMETRY
 10
47.25
 11
48.0
 20
40.375
 21
40.375
  0
LINE
  8
APS_GEOMETRY
 10
48.0
 11
47.25
 20
40.625
 21
40.625
  0
ARC
  8
APS_GEOMETRY
 10
47.25
 20
40.125
 40
0.5
 50
90.0
 51
180.0
  0
LINE
  8
APS_GEOMETRY
 10
46.75
 11
46.75
 20
40.125
 21
36.875
  0
ARC
  8
APS_GEOMETRY
 10
47.25
 20
36.875
 40
0.5
 50
180.0
 51
270.0
  0
LINE
  8
APS_GEOMETRY
 10
47.25
 11
48.0
 20
36.375
 21
36.375
  0
LINE
  8
DIMENSIONS
 10
0.0
 11
0.0
 20
128.5
 21
132.5
  0
LINE
  8
DIMENSIONS
 10
36.0
 11
36.0
 20
128.5
 21
132.5
  0
LINE
  8
DIMENSIONS
 10
0.0
 11
6.0
 20
132.0
 21
132.0
  0
LINE
  8
DIMENSIONS
 10
30.0
 11
36.0
 20
132.0
 21
132.0
  0
LINE
  8
DIMENSIONS
 10
1.0
 11
0.0
 20
131.8333
 21
132.0
  0
LINE
  8
DIMENSIONS
 10
0.0
 11
1.0
 20
132.0
 21
132.1667
  0
LINE
  8
DIMENSIONS
 10
1.0
 11
1.0
 20
132.1667
 21
131.8333
  0
LINE
  8
DIMENSIONS
 10
35.0
 11
36.0
 20
132.1667
 21
132.0
  0
LINE
  8
DIMENSIONS
 10
36.0
 11
35.0
 20
132.0
 21
131.8333
  0
LINE
  8
DIMENSIONS
 10
35.0
 11
35.0
 20
131.8333
 21
132.1667
  0
LINE
  8
CONSTRUCTION
 10
13.831379
 11
13.2078
 20
-12.46178
 21
-14.002913
  0
LINE
  8
CONSTRUCTION
 10
13.2078
 11
14.454958
 20
-14.002913
 21
-14.002913
  0
LINE
  8
CONSTRUCTION
 10
14.454958
 11
13.831379
 20
-14.002913
 21
-12.46178
  0
LINE
  8
CONSTRUCTION
 10
13.831379
 11
18.714561
 20
-12.46178
 21
-12.461764
  0
LINE
  8
CONSTRUCTION
 10
18.714561
 11
18.090982
 20
-12.461764
 21
-14.002897
  0
LINE
  8
CONSTRUCTION
 10
18.090982
 11
19.33814
 20
-14.002897
 21
-14.002897
  0
LINE
  8
CONSTRUCTION
 10
19.33814
 11
18.714561
 20
-14.002897
 21
-12.461764
  0
LINE
  8
CONSTRUCTION
 10
18.714561
 11
23.597731
 20
-12.461764
 21
-12.461764
  0
LINE
  8
CONSTRUCTION
 10
23.597731
 11
22.974152
 20
-12.461764
 21
-14.002897
  0
LINE
  8
CONSTRUCTION
 10
22.974152
 11
24.22131
 20
-14.002897
 21
-14.002897
  0
LINE
  8
CONSTRUCTION
 10
24.22131
 11
23.597731
 20
-14.002897
 21
-12.461764
  0
LINE
  8
CONSTRUCTION
 10
23.597731
 11
28.480901
 20
-12.461764
 21
-12.461764
  0
LINE
  8
CONSTRUCTION
 10
28.480901
 11
27.857322
 20
-12.461764
 21
-14.002897
  0
LINE
  8
CONSTRUCTION
 10
27.857322
 11
29.10448
 20
-14.002897
 21
-14.002897
  0
LINE
  8
CONSTRUCTION
 10
29.10448
 11
28.480901
 20
-14.002897
 21
-12.461764
  0
LINE
  8
CONSTRUCTION
 10
28.480901
 11
33.363373
 20
-12.461764
 21
-12.46178
  0
LINE
  8
CONSTRUCTION
 10
33.363373
 11
32.739794
 20
-12.46178
 21
-14.002913
  0
LINE
  8
CONSTRUCTION
 10
32.739794
 11
33.986952
 20
-14.002913
 21
-14.002913
  0
LINE
  8
CONSTRUCTION
 10
33.986952
 11
33.363373
 20
-14.002913
 21
-12.46178
  0
LINE
  8
CONSTRUCTION
 10
12.0
 11
60.0
 20
-18.74101
 21
-18.74101
  0
TEXT
  8
TEXT
 10
18.0
 20
131.5
 30
0.0
 40
1.0
 50
0.0
  1
CABINETS EXCEEDING 36" WIDE
  0
TEXT
  8
TEXT
 10
18.0
 20
130.0
 30
0.0
 40
1.0
 50
0.0
  1
WILL NEED A PARTITION
  0
TEXT
  8
TEXT
 10
13.2078
 20
-16.869403
 30
0.0
 40
2.688
 50
0.0
  1
DOVETAIL DESIGNS
  0
TEXT
  8
TEXT
 10
39.312436
 20
-18.62101
 30
0.0
 40
1.188
 50
0.0
  1
& MILLWORK INC.
  0
TEXT
  8
TEXT
 10
25.109495
 20
-19.685533
 30
0.0
 40
0.84
 50
0.0
  1
Established 1979
  0
TEXT
  8
TEXT
 10
13.2
 20
-21.6
 30
0.0
 40
1.2
 50
0.0
  1
Phone: (406) 248-5010    Website: www.dovetailmt.com
  0
ENDSEC
  0
EOF
