  0
SECTION
  2
ENTITIES
  0
LINE
  8
APS_GEOMETRY
 10
0.0625
 11
17.9375
 20
24.375
 21
24.375
  0
LINE
  8
APS_GEOMETRY
 10
17.9375
 11
17.9375
 20
24.375
 21
30.375
  0
LINE
  8
APS_GEOMETRY
 10
17.9375
 11
0.0625
 20
30.375
 21
30.375
  0
LINE
  8
APS_GEOMETRY
 10
0.0625
 11
0.0625
 20
30.375
 21
24.375
  0
ARC
  8
APS_GEOMETRY
 10
7.0
 20
27.375
 40
0.125
 50
90.0
 51
270.0
  0
LINE
  8
APS_GEOMETRY
 10
7.0
 11
11.0
 20
27.25
 21
27.25
  0
ARC
  8
APS_GEOMETRY
 10
11.0
 20
27.375
 40
0.125
 50
270.0
 51
90.0
  0
LINE
  8
APS_GEOMETRY
 10
11.0
 11
7.0
 20
27.5
 21
27.5
  0
ARC
  8
APS_GEOMETRY
 10
15.9375
 20
22.25
 40
0.125
 50
0.0
 51
180.0
  0
LINE
  8
APS_GEOMETRY
 10
15.8125
 11
15.8125
 20
22.25
 21
18.25
  0
ARC
  8
APS_GEOMETRY
 10
15.9375
 20
18.25
 40
0.125
 50
180.0
 51
0.0
  0
LINE
  8
APS_GEOMETRY
 10
16.0625
 11
16.0625
 20
18.25
 21
22.25
  0
LINE
  8
APS_GEOMETRY
 10
0.0625
 11
0.0625
 20
0.0
 21
24.25
  0
LINE
  8
APS_GEOMETRY
 10
0.0625
 11
17.9375
 20
24.25
 21
24.25
  0
LINE
  8
APS_GEOMETRY
 10
17.9375
 11
17.9375
 20
24.25
 21
0.0
  0
LINE
  8
APS_GEOMETRY
 10
17.9375
 11
0.0625
 20
0.0
 21
0.0
  0
LINE
  8
APS_GEOMETRY
 10
20.25
 11
21.0
 20
24.375
 21
24.375
  0
LINE
  8
APS_GEOMETRY
 10
21.0
 11
21.0
 20
24.375
 21
30.375
  0
LINE
  8
APS_GEOMETRY
 10
21.0
 11
20.25
 20
30.375
 21
30.375
  0
LINE
  8
APS_GEOMETRY
 10
20.25
 11
20.25
 20
30.375
 21
24.375
  0
LINE
  8
APS_GEOMETRY
 10
20.25
 11
20.25
 20
0.0
 21
24.25
  0
LINE
  8
APS_GEOMETRY
 10
20.25
 11
21.0
 20
24.25
 21
24.25
  0
LINE
  8
APS_GEOMETRY
 10
21.0
 11
21.0
 20
24.25
 21
0.0
  0
LINE
  8
APS_GEOMETRY
 10
21.0
 11
20.25
 20
0.0
 21
0.0
  0
LINE
  8
APS_GEOMETRY
 10
20.25
 11
19.125
 20
27.5
 21
27.5
  0
ARC
  8
APS_GEOMETRY
 10
19.125
 20
27.375
 40
0.125
 50
90.0
 51
270.0
  0
LINE
  8
APS_GEOMETRY
 10
19.125
 11
20.25
 20
27.25
 21
27.25
  0
LINE
  8
APS_GEOMETRY
 10
20.25
 11
19.5
 20
18.375
 21
18.375
  0
ARC
  8
APS_GEOMETRY
 10
19.5
 20
18.625
 40
0.25
 50
180.0
 51
270.0
  0
LINE
  8
APS_GEOMETRY
 10
19.25
 11
19.25
 20
18.625
 21
21.875
  0
ARC
  8
APS_GEOMETRY
 10
19.5
 20
21.875
 40
0.25
 50
90.0
 51
180.0
  0
LINE
  8
APS_GEOMETRY
 10
19.5
 11
20.25
 20
22.125
 21
22.125
  0
LINE
  8
APS_GEOMETRY
 10
20.25
 11
19.5
 20
22.375
 21
22.375
  0
ARC
  8
APS_GEOMETRY
 10
19.5
 20
21.875
 40
0.5
 50
90.0
 51
180.0
  0
LINE
  8
APS_GEOMETRY
 10
19.0
 11
19.0
 20
21.875
 21
18.625
  0
ARC
  8
APS_GEOMETRY
 10
19.5
 20
18.625
 40
0.5
 50
180.0
 51
270.0
  0
LINE
  8
APS_GEOMETRY
 10
19.5
 11
20.25
 20
18.125
 21
18.125
  0
LINE
  8
CONSTRUCTION
 10
4.957845
 11
4.80195
 20
-3.115445
 21
-3.500728
  0
LINE
  8
CONSTRUCTION
 10
4.80195
 11
5.113739
 20
-3.500728
 21
-3.500728
  0
LINE
  8
CONSTRUCTION
 10
5.113739
 11
4.957845
 20
-3.500728
 21
-3.115445
  0
LINE
  8
CONSTRUCTION
 10
4.957845
 11
6.17864
 20
-3.115445
 21
-3.115441
  0
LINE
  8
CONSTRUCTION
 10
6.17864
 11
6.022745
 20
-3.115441
 21
-3.500724
  0
LINE
  8
CONSTRUCTION
 10
6.022745
 11
6.334535
 20
-3.500724
 21
-3.500724
  0
LINE
  8
CONSTRUCTION
 10
6.334535
 11
6.17864
 20
-3.500724
 21
-3.115441
  0
LINE
  8
CONSTRUCTION
 10
6.17864
 11
7.399433
 20
-3.115441
 21
-3.115441
  0
LINE
  8
CONSTRUCTION
 10
7.399433
 11
7.243538
 20
-3.115441
 21
-3.500724
  0
LINE
  8
CONSTRUCTION
 10
7.243538
 11
7.555327
 20
-3.500724
 21
-3.500724
  0
LINE
  8
CONSTRUCTION
 10
7.555327
 11
7.399433
 20
-3.500724
 21
-3.115441
  0
LINE
  8
CONSTRUCTION
 10
7.399433
 11
8.620225
 20
-3.115441
 21
-3.115441
  0
LINE
  8
CONSTRUCTION
 10
8.620225
 11
8.46433
 20
-3.115441
 21
-3.500724
  0
LINE
  8
CONSTRUCTION
 10
8.46433
 11
8.77612
 20
-3.500724
 21
-3.500724
  0
LINE
  8
CONSTRUCTION
 10
8.77612
 11
8.620225
 20
-3.500724
 21
-3.115441
  0
LINE
  8
CONSTRUCTION
 10
8.620225
 11
9.840843
 20
-3.115441
 21
-3.115445
  0
LINE
  8
CONSTRUCTION
 10
9.840843
 11
9.684948
 20
-3.115445
 21
-3.500728
  0
LINE
  8
CONSTRUCTION
 10
9.684948
 11
9.996738
 20
-3.500728
 21
-3.500728
  0
LINE
  8
CONSTRUCTION
 10
9.996738
 11
9.840843
 20
-3.500728
 21
-3.115445
  0
LINE
  8
CONSTRUCTION
 10
4.5
 11
16.5
 20
-4.685253
 21
-4.685253
  0
TEXT
  8
TEXT
 10
4.8
 20
-5.4
 30
0.0
 40
0.3
 50
0.0
  1
Phone: (406) 248-5010    Website: www.dovetailmt.com
  0
TEXT
  8
TEXT
 10
7.777374
 20
-4.921383
 30
0.0
 40
0.21
 50
0.0
  1
Established 1979
  0
TEXT
  8
TEXT
 10
11.328109
 20
-4.655253
 30
0.0
 40
0.297
 50
0.0
  1
& MILLWORK INC.
  0
TEXT
  8
TEXT
 10
4.80195
 20
-4.217351
 30
0.0
 40
0.672
 50
0.0
  1
DOVETAIL DESIGNS
  0
ENDSEC
  0
EOF
