  0
SECTION
  2
ENTITIES
  0
ARC
  8
APS_GEOMETRY
 10
0.734375
 20
3.828837
 40
0.015625
 50
0.0
 51
84.784092
  0
ARC
  8
APS_GEOMETRY
 10
0.750003
 20
4.0
 40
0.15625
 50
95.216747
 51
264.78312
  0
ARC
  8
APS_GEOMETRY
 10
0.734375
 20
4.171163
 40
0.015625
 50
275.217239
 51
359.998475
  0
LINE
  8
APS_GEOMETRY
 10
0.75
 11
0.75
 20
4.171163
 21
4.703837
  0
ARC
  8
APS_GEOMETRY
 10
0.734375
 20
4.703837
 40
0.015625
 50
0.0
 51
84.784092
  0
ARC
  8
APS_GEOMETRY
 10
0.750003
 20
4.875
 40
0.15625
 50
95.216747
 51
264.78312
  0
ARC
  8
APS_GEOMETRY
 10
0.734375
 20
5.046163
 40
0.015625
 50
275.217239
 51
359.998475
  0
LINE
  8
APS_GEOMETRY
 10
0.75
 11
0.75
 20
5.046163
 21
5.578837
  0
ARC
  8
APS_GEOMETRY
 10
0.734375
 20
5.578837
 40
0.015625
 50
0.0
 51
84.784092
  0
ARC
  8
APS_GEOMETRY
 10
0.750003
 20
5.75
 40
0.15625
 50
95.216747
 51
264.78312
  0
ARC
  8
APS_GEOMETRY
 10
0.734375
 20
5.921163
 40
0.015625
 50
275.217239
 51
359.998475
  0
LINE
  8
APS_GEOMETRY
 10
0.75
 11
0.75
 20
5.921163
 21
6.453837
  0
ARC
  8
APS_GEOMETRY
 10
0.734375
 20
6.453837
 40
0.015625
 50
0.0
 51
84.784092
  0
ARC
  8
APS_GEOMETRY
 10
0.750003
 20
6.625
 40
0.15625
 50
95.216747
 51
264.78312
  0
ARC
  8
APS_GEOMETRY
 10
0.734375
 20
6.796163
 40
0.015625
 50
275.217239
 51
359.998475
  0
LINE
  8
APS_GEOMETRY
 10
0.75
 11
0.75
 20
6.796163
 21
7.328837
  0
ARC
  8
APS_GEOMETRY
 10
0.734375
 20
7.328837
 40
0.015625
 50
0.0
 51
84.784092
  0
ARC
  8
APS_GEOMETRY
 10
0.750003
 20
7.5
 40
0.15625
 50
95.216747
 51
264.78312
  0
ARC
  8
APS_GEOMETRY
 10
0.734375
 20
7.671163
 40
0.015625
 50
275.217239
 51
359.998475
  0
LINE
  8
APS_GEOMETRY
 10
0.75
 11
0.75
 20
7.671163
 21
8.0
  0
LINE
  8
APS_GEOMETRY
 10
0.75
 11
0.0
 20
8.0
 21
8.0
  0
LINE
  8
APS_GEOMETRY
 10
0.0
 11
0.0
 20
8.0
 21
0.0
  0
LINE
  8
APS_GEOMETRY
 10
0.0
 11
0.75
 20
0.0
 21
0.0
  0
LINE
  8
APS_GEOMETRY
 10
0.75
 11
0.75
 20
0.0
 21
0.328837
  0
ARC
  8
APS_GEOMETRY
 10
0.734375
 20
0.328837
 40
0.015625
 50
0.0
 51
84.784092
  0
ARC
  8
APS_GEOMETRY
 10
0.750003
 20
0.5
 40
0.15625
 50
95.216747
 51
264.78312
  0
ARC
  8
APS_GEOMETRY
 10
0.734375
 20
0.671163
 40
0.015625
 50
275.217239
 51
359.998475
  0
LINE
  8
APS_GEOMETRY
 10
0.75
 11
0.75
 20
0.671163
 21
1.203837
  0
ARC
  8
APS_GEOMETRY
 10
0.734375
 20
1.203837
 40
0.015625
 50
0.0
 51
84.784092
  0
ARC
  8
APS_GEOMETRY
 10
0.750003
 20
1.375
 40
0.15625
 50
95.216747
 51
264.78312
  0
ARC
  8
APS_GEOMETRY
 10
0.734375
 20
1.546163
 40
0.015625
 50
275.217239
 51
359.998475
  0
LINE
  8
APS_GEOMETRY
 10
0.75
 11
0.75
 20
1.546163
 21
2.078837
  0
ARC
  8
APS_GEOMETRY
 10
0.734375
 20
2.078837
 40
0.015625
 50
0.0
 51
84.784092
  0
ARC
  8
APS_GEOMETRY
 10
0.750003
 20
2.25
 40
0.15625
 50
95.216747
 51
264.78312
  0
ARC
  8
APS_GEOMETRY
 10
0.734375
 20
2.421163
 40
0.015625
 50
275.217239
 51
359.998475
  0
LINE
  8
APS_GEOMETRY
 10
0.75
 11
0.75
 20
2.421163
 21
2.953837
  0
ARC
  8
APS_GEOMETRY
 10
0.734375
 20
2.953837
 40
0.015625
 50
0.0
 51
84.784092
  0
ARC
  8
APS_GEOMETRY
 10
0.750003
 20
3.125
 40
0.15625
 50
95.216747
 51
264.78312
  0
ARC
  8
APS_GEOMETRY
 10
0.734375
 20
3.296163
 40
0.015625
 50
275.217239
 51
359.998475
  0
LINE
  8
APS_GEOMETRY
 10
0.75
 11
0.75
 20
3.296163
 21
3.828837
  0
LINE
  8
CONSTRUCTION
 10
0.152615
 11
0.10065
 20
-1.038482
 21
-1.166909
  0
LINE
  8
CONSTRUCTION
 10
0.10065
 11
0.20458
 20
-1.166909
 21
-1.166909
  0
LINE
  8
CONSTRUCTION
 10
0.20458
 11
0.152615
 20
-1.166909
 21
-1.038482
  0
LINE
  8
CONSTRUCTION
 10
0.152615
 11
0.559547
 20
-1.038482
 21
-1.03848
  0
LINE
  8
CONSTRUCTION
 10
0.559547
 11
0.507582
 20
-1.03848
 21
-1.166908
  0
LINE
  8
CONSTRUCTION
 10
0.507582
 11
0.611512
 20
-1.166908
 21
-1.166908
  0
LINE
  8
CONSTRUCTION
 10
0.611512
 11
0.559547
 20
-1.166908
 21
-1.03848
  0
LINE
  8
CONSTRUCTION
 10
0.559547
 11
0.966478
 20
-1.03848
 21
-1.03848
  0
LINE
  8
CONSTRUCTION
 10
0.966478
 11
0.914513
 20
-1.03848
 21
-1.166908
  0
LINE
  8
CONSTRUCTION
 10
0.914513
 11
1.018442
 20
-1.166908
 21
-1.166908
  0
LINE
  8
CONSTRUCTION
 10
1.018442
 11
0.966478
 20
-1.166908
 21
-1.03848
  0
LINE
  8
CONSTRUCTION
 10
0.966478
 11
1.373408
 20
-1.03848
 21
-1.03848
  0
LINE
  8
CONSTRUCTION
 10
1.373408
 11
1.321443
 20
-1.03848
 21
-1.166908
  0
LINE
  8
CONSTRUCTION
 10
1.321443
 11
1.425373
 20
-1.166908
 21
-1.166908
  0
LINE
  8
CONSTRUCTION
 10
1.425373
 11
1.373408
 20
-1.166908
 21
-1.03848
  0
LINE
  8
CONSTRUCTION
 10
1.373408
 11
1.780281
 20
-1.03848
 21
-1.038482
  0
LINE
  8
CONSTRUCTION
 10
1.780281
 11
1.728316
 20
-1.038482
 21
-1.166909
  0
LINE
  8
CONSTRUCTION
 10
1.728316
 11
1.832246
 20
-1.166909
 21
-1.166909
  0
LINE
  8
CONSTRUCTION
 10
1.832246
 11
1.780281
 20
-1.166909
 21
-1.038482
  0
LINE
  8
CONSTRUCTION
 10
0.0
 11
4.0
 20
-1.561751
 21
-1.561751
  0
TEXT
  8
TEXT
 10
0.10065
 20
-1.405784
 30
0.0
 40
0.224
 50
0.0
  1
DOVETAIL DESIGNS
  0
TEXT
  8
TEXT
 10
2.276036
 20
-1.551751
 30
0.0
 40
0.099
 50
0.0
  1
& MILLWORK INC.
  0
TEXT
  8
TEXT
 10
1.092458
 20
-1.640461
 30
0.0
 40
0.07
 50
0.0
  1
Established 1979
  0
TEXT
  8
TEXT
 10
0.1
 20
-1.8
 30
0.0
 40
0.1
 50
0.0
  1
Phone: (406) 248-5010    Website: www.dovetailmt.com
  0
TEXT
  8
TEXT
 10
0.0
 20
-0.25
 30
0.0
 40
0.15625
 50
0.0
  1
FL5
  0
TEXT
  8
TEXT
 10
0.0
 20
-0.5
 30
0.0
 40
0.1
 50
0.0
  1
3/4"x8"
  0
ENDSEC
  0
EOF
