  0
SECTION
  2
ENTITIES
  0
ARC
  8
APS_GEOMETRY
 10
0.71875
 20
3.842327
 40
0.03125
 50
275.215909
 51
0.0
  0
LINE
  8
APS_GEOMETRY
 10
0.75
 11
0.75
 20
3.842327
 21
4.157673
  0
ARC
  8
APS_GEOMETRY
 10
0.71875
 20
4.157673
 40
0.03125
 50
0.0
 51
84.784091
  0
ARC
  8
APS_GEOMETRY
 10
0.749997
 20
4.5
 40
0.3125
 50
95.215283
 51
264.784681
  0
ARC
  8
APS_GEOMETRY
 10
0.71875
 20
4.842327
 40
0.03125
 50
275.216272
 51
0.001138
  0
LINE
  8
APS_GEOMETRY
 10
0.75
 11
0.75
 20
4.842327
 21
5.157673
  0
ARC
  8
APS_GEOMETRY
 10
0.71875
 20
5.157673
 40
0.03125
 50
0.0
 51
84.784091
  0
ARC
  8
APS_GEOMETRY
 10
0.749997
 20
5.5
 40
0.3125
 50
95.215283
 51
264.784681
  0
ARC
  8
APS_GEOMETRY
 10
0.71875
 20
5.842327
 40
0.03125
 50
275.216272
 51
0.001138
  0
LINE
  8
APS_GEOMETRY
 10
0.75
 11
0.75
 20
5.842327
 21
6.157673
  0
ARC
  8
APS_GEOMETRY
 10
0.71875
 20
6.157673
 40
0.03125
 50
0.0
 51
84.784091
  0
ARC
  8
APS_GEOMETRY
 10
0.749997
 20
6.5
 40
0.3125
 50
95.215283
 51
264.784681
  0
ARC
  8
APS_GEOMETRY
 10
0.71875
 20
6.842327
 40
0.03125
 50
275.216272
 51
0.001138
  0
LINE
  8
APS_GEOMETRY
 10
0.75
 11
0.75
 20
6.842327
 21
7.157673
  0
ARC
  8
APS_GEOMETRY
 10
0.71875
 20
7.157673
 40
0.03125
 50
0.0
 51
84.784091
  0
ARC
  8
APS_GEOMETRY
 10
0.749997
 20
7.5
 40
0.3125
 50
95.215283
 51
264.784681
  0
ARC
  8
APS_GEOMETRY
 10
0.71875
 20
7.842327
 40
0.03125
 50
275.216272
 51
0.001138
  0
LINE
  8
APS_GEOMETRY
 10
0.75
 11
0.75
 20
7.842327
 21
8.0
  0
LINE
  8
APS_GEOMETRY
 10
0.75
 11
0.0
 20
8.0
 21
8.0
  0
LINE
  8
APS_GEOMETRY
 10
0.0
 11
0.0
 20
8.0
 21
0.0
  0
LINE
  8
APS_GEOMETRY
 10
0.0
 11
0.75
 20
0.0
 21
0.0
  0
LINE
  8
APS_GEOMETRY
 10
0.75
 11
0.75
 20
0.0
 21
0.157673
  0
ARC
  8
APS_GEOMETRY
 10
0.71875
 20
0.157673
 40
0.03125
 50
0.0
 51
84.784091
  0
ARC
  8
APS_GEOMETRY
 10
0.749997
 20
0.5
 40
0.3125
 50
95.215283
 51
264.784681
  0
ARC
  8
APS_GEOMETRY
 10
0.71875
 20
0.842327
 40
0.03125
 50
275.216272
 51
0.001138
  0
LINE
  8
APS_GEOMETRY
 10
0.75
 11
0.75
 20
0.842327
 21
1.157673
  0
ARC
  8
APS_GEOMETRY
 10
0.71875
 20
1.157673
 40
0.03125
 50
0.0
 51
84.784091
  0
ARC
  8
APS_GEOMETRY
 10
0.749997
 20
1.5
 40
0.3125
 50
95.215283
 51
264.784681
  0
ARC
  8
APS_GEOMETRY
 10
0.71875
 20
1.842327
 40
0.03125
 50
275.216272
 51
0.001138
  0
LINE
  8
APS_GEOMETRY
 10
0.75
 11
0.75
 20
1.842327
 21
2.157673
  0
ARC
  8
APS_GEOMETRY
 10
0.71875
 20
2.157673
 40
0.03125
 50
0.0
 51
84.784091
  0
ARC
  8
APS_GEOMETRY
 10
0.749997
 20
2.5
 40
0.3125
 50
95.215283
 51
264.784681
  0
ARC
  8
APS_GEOMETRY
 10
0.71875
 20
2.842327
 40
0.03125
 50
275.216272
 51
0.001138
  0
LINE
  8
APS_GEOMETRY
 10
0.75
 11
0.75
 20
2.842327
 21
3.157673
  0
ARC
  8
APS_GEOMETRY
 10
0.71875
 20
3.157673
 40
0.03125
 50
0.0
 51
84.784091
  0
ARC
  8
APS_GEOMETRY
 10
0.749996
 20
3.5
 40
0.3125
 50
95.215099
 51
264.784901
  0
LINE
  8
CONSTRUCTION
 10
0.152615
 11
0.10065
 20
-1.038482
 21
-1.166909
  0
LINE
  8
CONSTRUCTION
 10
0.10065
 11
0.20458
 20
-1.166909
 21
-1.166909
  0
LINE
  8
CONSTRUCTION
 10
0.20458
 11
0.152615
 20
-1.166909
 21
-1.038482
  0
LINE
  8
CONSTRUCTION
 10
0.152615
 11
0.559547
 20
-1.038482
 21
-1.03848
  0
LINE
  8
CONSTRUCTION
 10
0.559547
 11
0.507582
 20
-1.03848
 21
-1.166908
  0
LINE
  8
CONSTRUCTION
 10
0.507582
 11
0.611512
 20
-1.166908
 21
-1.166908
  0
LINE
  8
CONSTRUCTION
 10
0.611512
 11
0.559547
 20
-1.166908
 21
-1.03848
  0
LINE
  8
CONSTRUCTION
 10
0.559547
 11
0.966478
 20
-1.03848
 21
-1.03848
  0
LINE
  8
CONSTRUCTION
 10
0.966478
 11
0.914513
 20
-1.03848
 21
-1.166908
  0
LINE
  8
CONSTRUCTION
 10
0.914513
 11
1.018442
 20
-1.166908
 21
-1.166908
  0
LINE
  8
CONSTRUCTION
 10
1.018442
 11
0.966478
 20
-1.166908
 21
-1.03848
  0
LINE
  8
CONSTRUCTION
 10
0.966478
 11
1.373408
 20
-1.03848
 21
-1.03848
  0
LINE
  8
CONSTRUCTION
 10
1.373408
 11
1.321443
 20
-1.03848
 21
-1.166908
  0
LINE
  8
CONSTRUCTION
 10
1.321443
 11
1.425373
 20
-1.166908
 21
-1.166908
  0
LINE
  8
CONSTRUCTION
 10
1.425373
 11
1.373408
 20
-1.166908
 21
-1.03848
  0
LINE
  8
CONSTRUCTION
 10
1.373408
 11
1.780281
 20
-1.03848
 21
-1.038482
  0
LINE
  8
CONSTRUCTION
 10
1.780281
 11
1.728316
 20
-1.038482
 21
-1.166909
  0
LINE
  8
CONSTRUCTION
 10
1.728316
 11
1.832246
 20
-1.166909
 21
-1.166909
  0
LINE
  8
CONSTRUCTION
 10
1.832246
 11
1.780281
 20
-1.166909
 21
-1.038482
  0
LINE
  8
CONSTRUCTION
 10
0.0
 11
4.0
 20
-1.561751
 21
-1.561751
  0
TEXT
  8
TEXT
 10
0.10065
 20
-1.405784
 30
0.0
 40
0.224
 50
0.0
  1
DOVETAIL DESIGNS
  0
TEXT
  8
TEXT
 10
2.276036
 20
-1.551751
 30
0.0
 40
0.099
 50
0.0
  1
& MILLWORK INC.
  0
TEXT
  8
TEXT
 10
1.092458
 20
-1.640461
 30
0.0
 40
0.07
 50
0.0
  1
Established 1979
  0
TEXT
  8
TEXT
 10
0.1
 20
-1.8
 30
0.0
 40
0.1
 50
0.0
  1
Phone: (406) 248-5010    Website: www.dovetailmt.com
  0
TEXT
  8
TEXT
 10
0.0
 20
-0.5
 30
0.0
 40
0.1
 50
0.0
  1
3/4"x8"
  0
TEXT
  8
TEXT
 10
0.0
 20
-0.25
 30
0.0
 40
0.15625
 50
0.0
  1
FL2
  0
ENDSEC
  0
EOF
