  0
SECTION
  2
ENTITIES
  0
ARC
  8
MOULD-NEW
 10
2.375
 20
0.469359
 40
0.488975
 50
90.0
 51
109.396225
  0
ARC
  8
MOULD-NEW
 10
2.35179
 20
0.53529
 40
0.419078
 50
109.396641
 51
130.365054
  0
ARC
  8
MOULD-NEW
 10
2.316085
 20
0.577293
 40
0.36395
 50
130.364775
 51
154.019705
  0
ARC
  8
MOULD-NEW
 10
2.260936
 20
0.604166
 40
0.302602
 50
154.019538
 51
179.999869
  0
ARC
  8
MOULD-NEW
 10
1.655732
 20
0.604169
 40
0.302602
 50
334.019128
 51
359.999587
  0
ARC
  8
MOULD-NEW
 10
1.600582
 20
0.63104
 40
0.36395
 50
310.364753
 51
334.0198
  0
ARC
  8
MOULD-NEW
 10
1.56488
 20
0.673045
 40
0.419078
 50
289.396076
 51
310.364493
  0
ARC
  8
MOULD-NEW
 10
1.541666
 20
0.738975
 40
0.488975
 50
270.000028
 51
289.396167
  0
LINE
  8
MOULD-NEW
 10
1.541667
 11
1.541667
 20
0.25
 21
0.166667
  0
ARC
  8
MOULD-NEW
 10
1.541667
 20
0.0
 40
0.166667
 50
90.0
 51
180.0
  0
LINE
  8
MOULD-NEW
 10
1.375
 11
0.0
 20
0.0
 21
0.0
  0
LINE
  8
MOULD-NEW
 10
0.0
 11
0.0
 20
0.0
 21
1.125
  0
LINE
  8
MOULD-NEW
 10
0.0
 11
2.375
 20
1.125
 21
1.125
  0
LINE
  8
MOULD-NEW
 10
2.375
 11
2.375
 20
1.125
 21
0.958334
  0
LINE
  8
CONSTRUCTION
 10
0.152615
 11
0.10065
 20
-1.038482
 21
-1.166909
  0
LINE
  8
CONSTRUCTION
 10
0.10065
 11
0.20458
 20
-1.166909
 21
-1.166909
  0
LINE
  8
CONSTRUCTION
 10
0.20458
 11
0.152615
 20
-1.166909
 21
-1.038482
  0
LINE
  8
CONSTRUCTION
 10
0.152615
 11
0.559547
 20
-1.038482
 21
-1.03848
  0
LINE
  8
CONSTRUCTION
 10
0.559547
 11
0.507582
 20
-1.03848
 21
-1.166908
  0
LINE
  8
CONSTRUCTION
 10
0.507582
 11
0.611512
 20
-1.166908
 21
-1.166908
  0
LINE
  8
CONSTRUCTION
 10
0.611512
 11
0.559547
 20
-1.166908
 21
-1.03848
  0
LINE
  8
CONSTRUCTION
 10
0.559547
 11
0.966478
 20
-1.03848
 21
-1.03848
  0
LINE
  8
CONSTRUCTION
 10
0.966478
 11
0.914513
 20
-1.03848
 21
-1.166908
  0
LINE
  8
CONSTRUCTION
 10
0.914513
 11
1.018442
 20
-1.166908
 21
-1.166908
  0
LINE
  8
CONSTRUCTION
 10
1.018442
 11
0.966478
 20
-1.166908
 21
-1.03848
  0
LINE
  8
CONSTRUCTION
 10
0.966478
 11
1.373408
 20
-1.03848
 21
-1.03848
  0
LINE
  8
CONSTRUCTION
 10
1.373408
 11
1.321443
 20
-1.03848
 21
-1.166908
  0
LINE
  8
CONSTRUCTION
 10
1.321443
 11
1.425373
 20
-1.166908
 21
-1.166908
  0
LINE
  8
CONSTRUCTION
 10
1.425373
 11
1.373408
 20
-1.166908
 21
-1.03848
  0
LINE
  8
CONSTRUCTION
 10
1.373408
 11
1.780281
 20
-1.03848
 21
-1.038482
  0
LINE
  8
CONSTRUCTION
 10
1.780281
 11
1.728316
 20
-1.038482
 21
-1.166909
  0
LINE
  8
CONSTRUCTION
 10
1.728316
 11
1.832246
 20
-1.166909
 21
-1.166909
  0
LINE
  8
CONSTRUCTION
 10
1.832246
 11
1.780281
 20
-1.166909
 21
-1.038482
  0
LINE
  8
CONSTRUCTION
 10
0.0
 11
4.0
 20
-1.561751
 21
-1.561751
  0
TEXT
  8
TEXT
 10
0.10065
 20
-1.405784
 30
0.0
 40
0.224
 50
0.0
  1
DOVETAIL DESIGNS
  0
TEXT
  8
TEXT
 10
2.276036
 20
-1.551751
 30
0.0
 40
0.099
 50
0.0
  1
& MILLWORK INC.
  0
TEXT
  8
TEXT
 10
1.092458
 20
-1.640461
 30
0.0
 40
0.07
 50
0.0
  1
Established 1979
  0
TEXT
  8
TEXT
 10
0.1
 20
-1.8
 30
0.0
 40
0.1
 50
0.0
  1
Phone: (406) 248-5010    Website: www.dovetailmt.com
  0
TEXT
  8
TEXT
 10
0.0
 20
-0.5
 30
0.0
 40
0.1
 50
0.0
  1
2-3/8"x1-1/8"
  0
TEXT
  8
TEXT
 10
0.0
 20
-0.25
 30
0.0
 40
0.15625
 50
0.0
  1
DR5
  0
ENDSEC
  0
EOF
