  0
SECTION
  2
ENTITIES
  0
ARC
  8
MOULD-NEW
 10
1.375
 20
0.718743
 40
0.51041
 50
270.0
 51
292.076693
  0
ARC
  8
MOULD-NEW
 10
1.379111
 20
0.708605
 40
0.49947
 50
292.076833
 51
314.397192
  0
ARC
  8
MOULD-NEW
 10
1.385475
 20
0.702107
 40
0.490375
 50
314.397057
 51
337.070373
  0
ARC
  8
MOULD-NEW
 10
1.39538
 20
0.697917
 40
0.47962
 50
337.070302
 51
359.999901
  0
ARC
  8
MOULD-NEW
 10
2.35462
 20
0.697917
 40
0.47962
 50
157.070344
 51
180.000049
  0
ARC
  8
MOULD-NEW
 10
2.364525
 20
0.693726
 40
0.490375
 50
134.396811
 51
157.0702
  0
ARC
  8
MOULD-NEW
 10
2.370888
 20
0.687228
 40
0.49947
 50
112.076722
 51
134.39689
  0
ARC
  8
MOULD-NEW
 10
2.375001
 20
0.67709
 40
0.51041
 50
90.000004
 51
112.07678
  0
LINE
  8
MOULD-NEW
 10
2.375
 11
2.375
 20
1.1875
 21
1.375
  0
LINE
  8
MOULD-NEW
 10
2.375
 11
0.0
 20
1.375
 21
1.375
  0
LINE
  8
MOULD-NEW
 10
0.0
 11
0.0
 20
1.375
 21
0.0
  0
LINE
  8
MOULD-NEW
 10
0.0
 11
1.375
 20
0.0
 21
0.0
  0
LINE
  8
MOULD-NEW
 10
1.375
 11
1.375
 20
0.0
 21
0.208333
  0
LINE
  8
CONSTRUCTION
 10
0.152615
 11
0.10065
 20
-1.038482
 21
-1.166909
  0
LINE
  8
CONSTRUCTION
 10
0.10065
 11
0.20458
 20
-1.166909
 21
-1.166909
  0
LINE
  8
CONSTRUCTION
 10
0.20458
 11
0.152615
 20
-1.166909
 21
-1.038482
  0
LINE
  8
CONSTRUCTION
 10
0.152615
 11
0.559547
 20
-1.038482
 21
-1.03848
  0
LINE
  8
CONSTRUCTION
 10
0.559547
 11
0.507582
 20
-1.03848
 21
-1.166908
  0
LINE
  8
CONSTRUCTION
 10
0.507582
 11
0.611512
 20
-1.166908
 21
-1.166908
  0
LINE
  8
CONSTRUCTION
 10
0.611512
 11
0.559547
 20
-1.166908
 21
-1.03848
  0
LINE
  8
CONSTRUCTION
 10
0.559547
 11
0.966478
 20
-1.03848
 21
-1.03848
  0
LINE
  8
CONSTRUCTION
 10
0.966478
 11
0.914513
 20
-1.03848
 21
-1.166908
  0
LINE
  8
CONSTRUCTION
 10
0.914513
 11
1.018442
 20
-1.166908
 21
-1.166908
  0
LINE
  8
CONSTRUCTION
 10
1.018442
 11
0.966478
 20
-1.166908
 21
-1.03848
  0
LINE
  8
CONSTRUCTION
 10
0.966478
 11
1.373408
 20
-1.03848
 21
-1.03848
  0
LINE
  8
CONSTRUCTION
 10
1.373408
 11
1.321443
 20
-1.03848
 21
-1.166908
  0
LINE
  8
CONSTRUCTION
 10
1.321443
 11
1.425373
 20
-1.166908
 21
-1.166908
  0
LINE
  8
CONSTRUCTION
 10
1.425373
 11
1.373408
 20
-1.166908
 21
-1.03848
  0
LINE
  8
CONSTRUCTION
 10
1.373408
 11
1.780281
 20
-1.03848
 21
-1.038482
  0
LINE
  8
CONSTRUCTION
 10
1.780281
 11
1.728316
 20
-1.038482
 21
-1.166909
  0
LINE
  8
CONSTRUCTION
 10
1.728316
 11
1.832246
 20
-1.166909
 21
-1.166909
  0
LINE
  8
CONSTRUCTION
 10
1.832246
 11
1.780281
 20
-1.166909
 21
-1.038482
  0
LINE
  8
CONSTRUCTION
 10
0.0
 11
4.0
 20
-1.561751
 21
-1.561751
  0
TEXT
  8
TEXT
 10
0.10065
 20
-1.405784
 30
0.0
 40
0.224
 50
0.0
  1
DOVETAIL DESIGNS
  0
TEXT
  8
TEXT
 10
2.276036
 20
-1.551751
 30
0.0
 40
0.099
 50
0.0
  1
& MILLWORK INC.
  0
TEXT
  8
TEXT
 10
1.092458
 20
-1.640461
 30
0.0
 40
0.07
 50
0.0
  1
Established 1979
  0
TEXT
  8
TEXT
 10
0.1
 20
-1.8
 30
0.0
 40
0.1
 50
0.0
  1
Phone: (406) 248-5010    Website: www.dovetailmt.com
  0
TEXT
  8
TEXT
 10
0.0
 20
-0.25
 30
0.0
 40
0.15625
 50
0.0
  1
DR4
  0
TEXT
  8
TEXT
 10
0.0
 20
-0.5
 30
0.0
 40
0.1
 50
0.0
  1
2-3/8"x1-3/8"
  0
ENDSEC
  0
EOF
