  0
SECTION
  2
ENTITIES
  0
ARC
  8
APS_GEOMETRY
 10
0.875
 20
0.106458
 40
0.106458
 50
270.0
 51
295.607396
  0
ARC
  8
APS_GEOMETRY
 10
0.884237
 20
0.087182
 40
0.085083
 50
295.608116
 51
325.618925
  0
ARC
  8
APS_GEOMETRY
 10
0.880657
 20
0.089633
 40
0.089422
 50
325.618555
 51
337.978005
  0
ARC
  8
APS_GEOMETRY
 10
0.724977
 20
0.152603
 40
0.257355
 50
337.977646
 51
343.658723
  0
ARC
  8
APS_GEOMETRY
 10
1.816954
 20
-0.167574
 40
0.880594
 50
160.024628
 51
163.658307
  0
ARC
  8
APS_GEOMETRY
 10
1.175492
 20
0.065587
 40
0.198071
 50
149.78856
 51
160.024722
  0
ARC
  8
APS_GEOMETRY
 10
1.148409
 20
0.081359
 40
0.16673
 50
134.733547
 51
149.789163
  0
ARC
  8
APS_GEOMETRY
 10
1.173306
 20
0.056232
 40
0.202103
 50
121.869351
 51
134.734138
  0
ARC
  8
APS_GEOMETRY
 10
1.209872
 20
-0.002582
 40
0.271357
 50
112.670507
 51
121.869572
  0
ARC
  8
APS_GEOMETRY
 10
1.254491
 20
-0.109432
 40
0.387149
 50
105.681121
 51
112.668808
  0
ARC
  8
APS_GEOMETRY
 10
1.271364
 20
-0.169534
 40
0.449574
 50
100.359116
 51
105.681115
  0
ARC
  8
APS_GEOMETRY
 10
1.330309
 20
-0.491919
 40
0.777304
 50
96.830138
 51
100.360157
  0
LINE
  8
APS_GEOMETRY
 10
1.237867
 11
1.327073
 20
0.279869
 21
0.290807
  0
ARC
  8
APS_GEOMETRY
 10
1.277622
 20
0.551618
 40
0.265458
 50
280.736149
 51
290.464256
  0
ARC
  8
APS_GEOMETRY
 10
1.276909
 20
0.55351
 40
0.26748
 50
290.465667
 51
299.954223
  0
ARC
  8
APS_GEOMETRY
 10
1.249006
 20
0.601922
 40
0.323357
 50
299.9547
 51
308.166856
  0
ARC
  8
APS_GEOMETRY
 10
1.272525
 20
0.572021
 40
0.285315
 50
308.164268
 51
317.1497
  0
ARC
  8
APS_GEOMETRY
 10
1.34092
 20
0.508568
 40
0.192019
 50
317.151307
 51
337.703737
  0
ARC
  8
APS_GEOMETRY
 10
1.361816
 20
0.499999
 40
0.169434
 50
337.70369
 51
0.000122
  0
LINE
  8
APS_GEOMETRY
 10
1.53125
 11
1.65625
 20
0.5
 21
0.5
  0
ARC
  8
APS_GEOMETRY
 10
1.65625
 20
0.594697
 40
0.094697
 50
270.0
 51
299.892326
  0
ARC
  8
APS_GEOMETRY
 10
1.662983
 20
0.582984
 40
0.081187
 50
299.892152
 51
334.286476
  0
ARC
  8
APS_GEOMETRY
 10
1.607337
 20
0.609785
 40
0.142951
 50
334.285218
 51
348.333011
  0
ARC
  8
APS_GEOMETRY
 10
-0.427517
 20
1.029917
 40
2.220724
 50
348.334102
 51
349.994946
  0
ARC
  8
APS_GEOMETRY
 10
3.886317
 20
0.268929
 40
2.159717
 50
168.474819
 51
169.99624
  0
ARC
  8
APS_GEOMETRY
 10
2.22187
 20
0.608314
 40
0.461022
 50
163.588276
 51
168.473255
  0
ARC
  8
APS_GEOMETRY
 10
2.107111
 20
0.642117
 40
0.341388
 50
155.351691
 51
163.588696
  0
ARC
  8
APS_GEOMETRY
 10
2.030761
 20
0.677151
 40
0.257384
 50
144.955098
 51
155.351663
  0
ARC
  8
APS_GEOMETRY
 10
2.010394
 20
0.691439
 40
0.232505
 50
122.098208
 51
144.955696
  0
ARC
  8
APS_GEOMETRY
 10
2.091496
 20
0.562119
 40
0.385152
 50
106.979392
 51
122.09646
  0
ARC
  8
APS_GEOMETRY
 10
2.134061
 20
0.422797
 40
0.530831
 50
102.002417
 51
106.981951
  0
ARC
  8
APS_GEOMETRY
 10
2.188697
 20
0.165686
 40
0.793683
 50
98.33151
 51
102.000547
  0
LINE
  8
APS_GEOMETRY
 10
2.073692
 11
2.169147
 20
0.950993
 21
0.961689
  0
ARC
  8
APS_GEOMETRY
 10
2.081868
 20
1.76233
 40
0.805384
 50
276.2213
 51
280.43452
  0
ARC
  8
APS_GEOMETRY
 10
2.201773
 20
1.111222
 40
0.143328
 50
280.435313
 51
296.027227
  0
ARC
  8
APS_GEOMETRY
 10
2.228533
 20
1.056424
 40
0.082345
 50
296.026629
 51
330.108472
  0
ARC
  8
APS_GEOMETRY
 10
2.217963
 20
1.062501
 40
0.094537
 50
330.107779
 51
359.999176
  0
LINE
  8
APS_GEOMETRY
 10
2.3125
 11
2.3125
 20
1.0625
 21
1.3125
  0
LINE
  8
APS_GEOMETRY
 10
2.3125
 11
0.0
 20
1.3125
 21
1.3125
  0
LINE
  8
APS_GEOMETRY
 10
0.0
 11
0.0
 20
1.3125
 21
0.0
  0
LINE
  8
APS_GEOMETRY
 10
0.0
 11
0.875
 20
0.0
 21
0.0
  0
LINE
  8
CONSTRUCTION
 10
0.152615
 11
0.10065
 20
-1.038482
 21
-1.166909
  0
LINE
  8
CONSTRUCTION
 10
0.10065
 11
0.20458
 20
-1.166909
 21
-1.166909
  0
LINE
  8
CONSTRUCTION
 10
0.20458
 11
0.152615
 20
-1.166909
 21
-1.038482
  0
LINE
  8
CONSTRUCTION
 10
0.152615
 11
0.559547
 20
-1.038482
 21
-1.03848
  0
LINE
  8
CONSTRUCTION
 10
0.559547
 11
0.507582
 20
-1.03848
 21
-1.166908
  0
LINE
  8
CONSTRUCTION
 10
0.507582
 11
0.611512
 20
-1.166908
 21
-1.166908
  0
LINE
  8
CONSTRUCTION
 10
0.611512
 11
0.559547
 20
-1.166908
 21
-1.03848
  0
LINE
  8
CONSTRUCTION
 10
0.559547
 11
0.966478
 20
-1.03848
 21
-1.03848
  0
LINE
  8
CONSTRUCTION
 10
0.966478
 11
0.914513
 20
-1.03848
 21
-1.166908
  0
LINE
  8
CONSTRUCTION
 10
0.914513
 11
1.018442
 20
-1.166908
 21
-1.166908
  0
LINE
  8
CONSTRUCTION
 10
1.018442
 11
0.966478
 20
-1.166908
 21
-1.03848
  0
LINE
  8
CONSTRUCTION
 10
0.966478
 11
1.373408
 20
-1.03848
 21
-1.03848
  0
LINE
  8
CONSTRUCTION
 10
1.373408
 11
1.321443
 20
-1.03848
 21
-1.166908
  0
LINE
  8
CONSTRUCTION
 10
1.321443
 11
1.425373
 20
-1.166908
 21
-1.166908
  0
LINE
  8
CONSTRUCTION
 10
1.425373
 11
1.373408
 20
-1.166908
 21
-1.03848
  0
LINE
  8
CONSTRUCTION
 10
1.373408
 11
1.780281
 20
-1.03848
 21
-1.038482
  0
LINE
  8
CONSTRUCTION
 10
1.780281
 11
1.728316
 20
-1.038482
 21
-1.166909
  0
LINE
  8
CONSTRUCTION
 10
1.728316
 11
1.832246
 20
-1.166909
 21
-1.166909
  0
LINE
  8
CONSTRUCTION
 10
1.832246
 11
1.780281
 20
-1.166909
 21
-1.038482
  0
LINE
  8
CONSTRUCTION
 10
0.0
 11
4.0
 20
-1.561751
 21
-1.561751
  0
TEXT
  8
TEXT
 10
0.10065
 20
-1.405784
 30
0.0
 40
0.224
 50
0.0
  1
DOVETAIL DESIGNS
  0
TEXT
  8
TEXT
 10
2.276036
 20
-1.551751
 30
0.0
 40
0.099
 50
0.0
  1
& MILLWORK INC.
  0
TEXT
  8
TEXT
 10
1.092458
 20
-1.640461
 30
0.0
 40
0.07
 50
0.0
  1
Established 1979
  0
TEXT
  8
TEXT
 10
0.1
 20
-1.8
 30
0.0
 40
0.1
 50
0.0
  1
Phone: (406) 248-5010    Website: www.dovetailmt.com
  0
TEXT
  8
TEXT
 10
0.0
 20
-0.25
 30
0.0
 40
0.15625
 50
0.0
  1
DR2
  0
TEXT
  8
TEXT
 10
0.0
 20
-0.5
 30
0.0
 40
0.1
 50
0.0
  1
2-5/16"x1-5/16"
  0
ENDSEC
  0
EOF
