  0
SECTION
  2
ENTITIES
  0
ARC
  8
APS_GEOMETRY
 10
0.359511
 20
0.399179
 40
0.078309
 50
320.128072
 51
5.180438
  0
LINE
  8
APS_GEOMETRY
 10
0.4375
 11
0.4375
 20
0.40625
 21
0.4375
  0
LINE
  8
APS_GEOMETRY
 10
0.4375
 11
0.5
 20
0.4375
 21
0.4375
  0
LINE
  8
APS_GEOMETRY
 10
0.5
 11
0.5
 20
0.4375
 21
0.625
  0
LINE
  8
APS_GEOMETRY
 10
0.5
 11
0.0
 20
0.625
 21
0.625
  0
LINE
  8
APS_GEOMETRY
 10
0.0
 11
0.0
 20
0.625
 21
0.0
  0
LINE
  8
APS_GEOMETRY
 10
0.0
 11
0.15625
 20
0.0
 21
0.0
  0
LINE
  8
APS_GEOMETRY
 10
0.15625
 11
0.1563
 20
0.0
 21
0.125
  0
LINE
  8
APS_GEOMETRY
 10
0.1563
 11
0.18755
 20
0.125
 21
0.125
  0
ARC
  8
APS_GEOMETRY
 10
0.326324
 20
0.110599
 40
0.139519
 50
140.131759
 51
174.075317
  0
ARC
  8
APS_GEOMETRY
 10
0.425469
 20
0.027791
 40
0.268697
 50
121.194522
 51
140.131233
  0
LINE
  8
APS_GEOMETRY
 10
0.286299
 11
0.359522
 20
0.257638
 21
0.298494
  0
ARC
  8
APS_GEOMETRY
 10
0.247758
 20
0.492529
 40
0.223921
 50
299.941897
 51
320.127508
  0
LINE
  8
CONSTRUCTION
 10
0.152615
 11
0.10065
 20
-1.038482
 21
-1.166909
  0
LINE
  8
CONSTRUCTION
 10
0.10065
 11
0.20458
 20
-1.166909
 21
-1.166909
  0
LINE
  8
CONSTRUCTION
 10
0.20458
 11
0.152615
 20
-1.166909
 21
-1.038482
  0
LINE
  8
CONSTRUCTION
 10
0.152615
 11
0.559547
 20
-1.038482
 21
-1.03848
  0
LINE
  8
CONSTRUCTION
 10
0.559547
 11
0.507582
 20
-1.03848
 21
-1.166908
  0
LINE
  8
CONSTRUCTION
 10
0.507582
 11
0.611512
 20
-1.166908
 21
-1.166908
  0
LINE
  8
CONSTRUCTION
 10
0.611512
 11
0.559547
 20
-1.166908
 21
-1.03848
  0
LINE
  8
CONSTRUCTION
 10
0.559547
 11
0.966478
 20
-1.03848
 21
-1.03848
  0
LINE
  8
CONSTRUCTION
 10
0.966478
 11
0.914513
 20
-1.03848
 21
-1.166908
  0
LINE
  8
CONSTRUCTION
 10
0.914513
 11
1.018442
 20
-1.166908
 21
-1.166908
  0
LINE
  8
CONSTRUCTION
 10
1.018442
 11
0.966478
 20
-1.166908
 21
-1.03848
  0
LINE
  8
CONSTRUCTION
 10
0.966478
 11
1.373408
 20
-1.03848
 21
-1.03848
  0
LINE
  8
CONSTRUCTION
 10
1.373408
 11
1.321443
 20
-1.03848
 21
-1.166908
  0
LINE
  8
CONSTRUCTION
 10
1.321443
 11
1.425373
 20
-1.166908
 21
-1.166908
  0
LINE
  8
CONSTRUCTION
 10
1.425373
 11
1.373408
 20
-1.166908
 21
-1.03848
  0
LINE
  8
CONSTRUCTION
 10
1.373408
 11
1.780281
 20
-1.03848
 21
-1.038482
  0
LINE
  8
CONSTRUCTION
 10
1.780281
 11
1.728316
 20
-1.038482
 21
-1.166909
  0
LINE
  8
CONSTRUCTION
 10
1.728316
 11
1.832246
 20
-1.166909
 21
-1.166909
  0
LINE
  8
CONSTRUCTION
 10
1.832246
 11
1.780281
 20
-1.166909
 21
-1.038482
  0
LINE
  8
CONSTRUCTION
 10
0.0
 11
4.0
 20
-1.561751
 21
-1.561751
  0
TEXT
  8
TEXT
 10
0.10065
 20
-1.405784
 30
0.0
 40
0.224
 50
0.0
  1
DOVETAIL DESIGNS
  0
TEXT
  8
TEXT
 10
2.276036
 20
-1.551751
 30
0.0
 40
0.099
 50
0.0
  1
& MILLWORK INC.
  0
TEXT
  8
TEXT
 10
1.092458
 20
-1.640461
 30
0.0
 40
0.07
 50
0.0
  1
Established 1979
  0
TEXT
  8
TEXT
 10
0.1
 20
-1.8
 30
0.0
 40
0.1
 50
0.0
  1
Phone: (406) 248-5010    Website: www.dovetailmt.com
  0
TEXT
  8
TEXT
 10
0.0
 20
-0.25
 30
0.0
 40
0.15625
 50
0.0
  1
DR10
  0
TEXT
  8
TEXT
 10
0.0
 20
-0.5
 30
0.0
 40
0.1
 50
0.0
  1
1/2"x5/8"
  0
ENDSEC
  0
EOF
