  0
SECTION
  2
ENTITIES
  0
ARC
  8
APS_GEOMETRY
 10
1.370799
 20
1.491601
 40
0.1875
 50
167.776554
 51
246.566889
  0
LINE
  8
APS_GEOMETRY
 10
1.296234
 11
1.358409
 20
1.319565
 21
1.293553
  0
ARC
  8
APS_GEOMETRY
 10
1.281389
 20
0.990693
 40
0.3125
 50
1.706637
 51
75.731632
  0
LINE
  8
APS_GEOMETRY
 10
1.59375
 11
1.6875
 20
1.0
 21
1.0
  0
LINE
  8
APS_GEOMETRY
 10
1.6875
 11
1.6875
 20
1.0
 21
0.42053
  0
ARC
  8
APS_GEOMETRY
 10
1.6875
 20
0.29553
 40
0.125
 50
90.0
 51
180.0
  0
LINE
  8
APS_GEOMETRY
 10
1.5625
 11
1.5625
 20
0.29553
 21
0.2378
  0
LINE
  8
APS_GEOMETRY
 10
1.5625
 11
1.5
 20
0.2378
 21
0.2378
  0
ARC
  8
APS_GEOMETRY
 10
1.282275
 20
0.216652
 40
0.21875
 50
277.942133
 51
5.547837
  0
LINE
  8
APS_GEOMETRY
 10
1.3125
 11
0.0
 20
0.0
 21
0.0
  0
LINE
  8
APS_GEOMETRY
 10
0.0
 11
0.0
 20
0.0
 21
0.9375
  0
LINE
  8
APS_GEOMETRY
 10
0.0
 11
0.75
 20
0.9375
 21
0.9375
  0
LINE
  8
APS_GEOMETRY
 10
0.75
 11
0.75
 20
0.9375
 21
1.6875
  0
LINE
  8
APS_GEOMETRY
 10
0.75
 11
1.093775
 20
1.6875
 21
1.6875
  0
LINE
  8
APS_GEOMETRY
 10
1.093775
 11
1.0938
 20
1.6875
 21
1.53125
  0
LINE
  8
APS_GEOMETRY
 10
1.0938
 11
1.18755
 20
1.53125
 21
1.531299
  0
LINE
  8
CONSTRUCTION
 10
0.152615
 11
0.10065
 20
-1.038482
 21
-1.166909
  0
LINE
  8
CONSTRUCTION
 10
0.10065
 11
0.20458
 20
-1.166909
 21
-1.166909
  0
LINE
  8
CONSTRUCTION
 10
0.20458
 11
0.152615
 20
-1.166909
 21
-1.038482
  0
LINE
  8
CONSTRUCTION
 10
0.152615
 11
0.559547
 20
-1.038482
 21
-1.03848
  0
LINE
  8
CONSTRUCTION
 10
0.559547
 11
0.507582
 20
-1.03848
 21
-1.166908
  0
LINE
  8
CONSTRUCTION
 10
0.507582
 11
0.611512
 20
-1.166908
 21
-1.166908
  0
LINE
  8
CONSTRUCTION
 10
0.611512
 11
0.559547
 20
-1.166908
 21
-1.03848
  0
LINE
  8
CONSTRUCTION
 10
0.559547
 11
0.966478
 20
-1.03848
 21
-1.03848
  0
LINE
  8
CONSTRUCTION
 10
0.966478
 11
0.914513
 20
-1.03848
 21
-1.166908
  0
LINE
  8
CONSTRUCTION
 10
0.914513
 11
1.018442
 20
-1.166908
 21
-1.166908
  0
LINE
  8
CONSTRUCTION
 10
1.018442
 11
0.966478
 20
-1.166908
 21
-1.03848
  0
LINE
  8
CONSTRUCTION
 10
0.966478
 11
1.373408
 20
-1.03848
 21
-1.03848
  0
LINE
  8
CONSTRUCTION
 10
1.373408
 11
1.321443
 20
-1.03848
 21
-1.166908
  0
LINE
  8
CONSTRUCTION
 10
1.321443
 11
1.425373
 20
-1.166908
 21
-1.166908
  0
LINE
  8
CONSTRUCTION
 10
1.425373
 11
1.373408
 20
-1.166908
 21
-1.03848
  0
LINE
  8
CONSTRUCTION
 10
1.373408
 11
1.780281
 20
-1.03848
 21
-1.038482
  0
LINE
  8
CONSTRUCTION
 10
1.780281
 11
1.728316
 20
-1.038482
 21
-1.166909
  0
LINE
  8
CONSTRUCTION
 10
1.728316
 11
1.832246
 20
-1.166909
 21
-1.166909
  0
LINE
  8
CONSTRUCTION
 10
1.832246
 11
1.780281
 20
-1.166909
 21
-1.038482
  0
LINE
  8
CONSTRUCTION
 10
0.0
 11
4.0
 20
-1.561751
 21
-1.561751
  0
TEXT
  8
TEXT
 10
0.0
 20
-0.5
 30
0.0
 40
0.1
 50
0.0
  1
1-11/16"x1-11/16"
  0
TEXT
  8
TEXT
 10
0.0
 20
-0.25
 30
0.0
 40
0.15625
 50
0.0
  1
CSB7
  0
TEXT
  8
TEXT
 10
0.10065
 20
-1.405784
 30
0.0
 40
0.224
 50
0.0
  1
DOVETAIL DESIGNS
  0
TEXT
  8
TEXT
 10
2.276036
 20
-1.551751
 30
0.0
 40
0.099
 50
0.0
  1
& MILLWORK INC.
  0
TEXT
  8
TEXT
 10
1.092458
 20
-1.640461
 30
0.0
 40
0.07
 50
0.0
  1
Established 1979
  0
TEXT
  8
TEXT
 10
0.1
 20
-1.8
 30
0.0
 40
0.1
 50
0.0
  1
Phone: (406) 248-5010    Website: www.dovetailmt.com
  0
ENDSEC
  0
EOF
