  0
SECTION
  2
ENTITIES
  0
ARC
  8
APS_GEOMETRY
 10
0.6875
 20
0.641747
 40
0.0625
 50
0.0
 51
60.0
  0
LINE
  8
APS_GEOMETRY
 10
0.71875
 11
0.625
 20
0.695874
 21
0.75
  0
ARC
  8
APS_GEOMETRY
 10
0.449184
 20
0.890713
 40
0.225192
 50
321.328269
 51
335.630804
  0
ARC
  8
APS_GEOMETRY
 10
0.354508
 20
0.933592
 40
0.329125
 50
335.631866
 51
346.507976
  0
ARC
  8
APS_GEOMETRY
 10
0.26299
 20
0.95555
 40
0.423241
 50
346.507964
 51
354.252013
  0
ARC
  8
APS_GEOMETRY
 10
-0.019097
 20
0.983954
 40
0.706754
 50
354.251259
 51
359.536647
  0
ARC
  8
APS_GEOMETRY
 10
-0.111689
 20
0.9847
 40
0.799349
 50
359.536862
 51
3.781753
  0
ARC
  8
APS_GEOMETRY
 10
-0.239986
 20
0.976221
 40
0.927926
 50
3.781655
 51
7.528048
  0
ARC
  8
APS_GEOMETRY
 10
-0.341049
 20
0.962869
 40
1.029867
 50
7.527849
 51
10.705331
  0
ARC
  8
APS_GEOMETRY
 10
-0.668933
 20
0.900879
 40
1.36356
 50
10.705499
 51
13.273448
  0
ARC
  8
APS_GEOMETRY
 10
-0.929739
 20
0.839365
 40
1.631522
 50
13.273091
 51
15.212973
  0
ARC
  8
APS_GEOMETRY
 10
-2.023166
 20
0.541998
 40
2.764663
 50
15.213443
 51
16.521043
  0
ARC
  8
APS_GEOMETRY
 10
-2.818756
 20
0.305982
 40
3.594523
 50
16.521561
 51
17.199987
  0
ARC
  8
APS_GEOMETRY
 10
-75.068772
 20
-22.058276
 40
79.226691
 50
17.199406
 51
17.254698
  0
ARC
  8
APS_GEOMETRY
 10
8.226888
 20
3.813185
 40
7.99429
 50
196.779369
 51
197.254575
  0
ARC
  8
APS_GEOMETRY
 10
3.675649
 20
2.440871
 40
3.240657
 50
195.838286
 51
196.779339
  0
ARC
  8
APS_GEOMETRY
 10
3.000645
 20
2.249376
 40
2.539016
 50
194.42511
 51
195.838269
  0
ARC
  8
APS_GEOMETRY
 10
2.199171
 20
2.043235
 40
1.711456
 50
192.530554
 51
194.425664
  0
ARC
  8
APS_GEOMETRY
 10
1.962568
 20
1.99064
 40
1.469078
 50
190.142511
 51
192.530216
  0
ARC
  8
APS_GEOMETRY
 10
1.634147
 20
1.931883
 40
1.135442
 50
187.254574
 51
190.142267
  0
ARC
  8
APS_GEOMETRY
 10
1.519985
 20
1.917378
 40
1.020363
 50
183.869769
 51
187.256089
  0
ARC
  8
APS_GEOMETRY
 10
1.355759
 20
1.906236
 40
0.855759
 50
179.999036
 51
183.867544
  0
LINE
  8
APS_GEOMETRY
 10
0.5
 11
0.5
 20
1.90625
 21
2.296875
  0
ARC
  8
APS_GEOMETRY
 10
0.436523
 20
2.296875
 40
0.063477
 50
0.0
 51
59.489763
  0
ARC
  8
APS_GEOMETRY
 10
0.500977
 20
2.40625
 40
0.063477
 50
180.000451
 51
239.489311
  0
LINE
  8
APS_GEOMETRY
 10
0.4375
 11
0.4375
 20
2.40625
 21
2.90625
  0
ARC
  8
APS_GEOMETRY
 10
0.34375
 20
2.90625
 40
0.09375
 50
0.0
 51
90.0
  0
LINE
  8
APS_GEOMETRY
 10
0.34375
 11
0.0
 20
3.0
 21
3.0
  0
LINE
  8
APS_GEOMETRY
 10
0.0
 11
0.0
 20
3.0
 21
2.25
  0
ARC
  8
APS_GEOMETRY
 10
-0.03125
 20
2.161612
 40
0.09375
 50
0.000212
 51
70.528779
  0
LINE
  8
APS_GEOMETRY
 10
0.0625
 11
0.0625
 20
2.161612
 21
0.588388
  0
ARC
  8
APS_GEOMETRY
 10
-0.03125
 20
0.588388
 40
0.09375
 50
289.471221
 51
0.0
  0
LINE
  8
APS_GEOMETRY
 10
0.0
 11
0.0
 20
0.5
 21
0.0
  0
LINE
  8
APS_GEOMETRY
 10
0.0
 11
0.75
 20
0.0
 21
0.0
  0
LINE
  8
APS_GEOMETRY
 10
0.75
 11
0.75
 20
0.0
 21
0.641747
  0
LINE
  8
CONSTRUCTION
 10
0.152615
 11
0.10065
 20
-1.038482
 21
-1.166909
  0
LINE
  8
CONSTRUCTION
 10
0.10065
 11
0.20458
 20
-1.166909
 21
-1.166909
  0
LINE
  8
CONSTRUCTION
 10
0.20458
 11
0.152615
 20
-1.166909
 21
-1.038482
  0
LINE
  8
CONSTRUCTION
 10
0.152615
 11
0.559547
 20
-1.038482
 21
-1.03848
  0
LINE
  8
CONSTRUCTION
 10
0.559547
 11
0.507582
 20
-1.03848
 21
-1.166908
  0
LINE
  8
CONSTRUCTION
 10
0.507582
 11
0.611512
 20
-1.166908
 21
-1.166908
  0
LINE
  8
CONSTRUCTION
 10
0.611512
 11
0.559547
 20
-1.166908
 21
-1.03848
  0
LINE
  8
CONSTRUCTION
 10
0.559547
 11
0.966478
 20
-1.03848
 21
-1.03848
  0
LINE
  8
CONSTRUCTION
 10
0.966478
 11
0.914513
 20
-1.03848
 21
-1.166908
  0
LINE
  8
CONSTRUCTION
 10
0.914513
 11
1.018442
 20
-1.166908
 21
-1.166908
  0
LINE
  8
CONSTRUCTION
 10
1.018442
 11
0.966478
 20
-1.166908
 21
-1.03848
  0
LINE
  8
CONSTRUCTION
 10
0.966478
 11
1.373408
 20
-1.03848
 21
-1.03848
  0
LINE
  8
CONSTRUCTION
 10
1.373408
 11
1.321443
 20
-1.03848
 21
-1.166908
  0
LINE
  8
CONSTRUCTION
 10
1.321443
 11
1.425373
 20
-1.166908
 21
-1.166908
  0
LINE
  8
CONSTRUCTION
 10
1.425373
 11
1.373408
 20
-1.166908
 21
-1.03848
  0
LINE
  8
CONSTRUCTION
 10
1.373408
 11
1.780281
 20
-1.03848
 21
-1.038482
  0
LINE
  8
CONSTRUCTION
 10
1.780281
 11
1.728316
 20
-1.038482
 21
-1.166909
  0
LINE
  8
CONSTRUCTION
 10
1.728316
 11
1.832246
 20
-1.166909
 21
-1.166909
  0
LINE
  8
CONSTRUCTION
 10
1.832246
 11
1.780281
 20
-1.166909
 21
-1.038482
  0
LINE
  8
CONSTRUCTION
 10
0.0
 11
4.0
 20
-1.561751
 21
-1.561751
  0
TEXT
  8
TEXT
 10
0.10065
 20
-1.405784
 30
0.0
 40
0.224
 50
0.0
  1
DOVETAIL DESIGNS
  0
TEXT
  8
TEXT
 10
2.276036
 20
-1.551751
 30
0.0
 40
0.099
 50
0.0
  1
& MILLWORK INC.
  0
TEXT
  8
TEXT
 10
1.092458
 20
-1.640461
 30
0.0
 40
0.07
 50
0.0
  1
Established 1979
  0
TEXT
  8
TEXT
 10
0.1
 20
-1.8
 30
0.0
 40
0.1
 50
0.0
  1
Phone: (406) 248-5010    Website: www.dovetailmt.com
  0
TEXT
  8
TEXT
 10
0.0
 20
-0.5
 30
0.0
 40
0.1
 50
0.0
  1
3/4"x3"
  0
TEXT
  8
TEXT
 10
0.0
 20
-0.25
 30
0.0
 40
0.15625
 50
0.0
  1
CS86
  0
ENDSEC
  0
EOF
