  0
SECTION
  2
ENTITIES
  0
ARC
  8
APS_GEOMETRY
 10
0.553202
 20
1.115702
 40
0.196798
 50
0.0
 51
87.291855
  0
ARC
  8
APS_GEOMETRY
 10
0.332897
 20
1.658701
 40
0.415602
 50
303.535877
 51
310.351636
  0
ARC
  8
APS_GEOMETRY
 10
0.402346
 20
1.576955
 40
0.308338
 50
310.35216
 51
318.98022
  0
ARC
  8
APS_GEOMETRY
 10
0.446189
 20
1.538821
 40
0.250231
 50
318.97952
 51
330.299373
  0
ARC
  8
APS_GEOMETRY
 10
0.509315
 20
1.502809
 40
0.177555
 50
330.300501
 51
344.811448
  0
ARC
  8
APS_GEOMETRY
 10
0.494588
 20
1.506809
 40
0.192816
 50
344.810929
 51
358.075635
  0
ARC
  8
APS_GEOMETRY
 10
0.408494
 20
1.509705
 40
0.278959
 50
358.074871
 51
8.20013
  0
ARC
  8
APS_GEOMETRY
 10
0.27955
 20
1.491118
 40
0.409235
 50
8.200908
 51
14.362659
  0
ARC
  8
APS_GEOMETRY
 10
0.103815
 20
1.446116
 40
0.590641
 50
14.362918
 51
19.127599
  0
ARC
  8
APS_GEOMETRY
 10
0.093176
 20
1.442442
 40
0.601897
 50
19.126236
 51
23.445363
  0
ARC
  8
APS_GEOMETRY
 10
-0.011545
 20
1.39701
 40
0.716048
 50
23.44654
 51
27.261482
  0
ARC
  8
APS_GEOMETRY
 10
-0.083593
 20
1.359888
 40
0.797097
 50
27.2613
 51
30.545993
  0
ARC
  8
APS_GEOMETRY
 10
-0.282545
 20
1.242492
 40
1.028103
 50
30.545457
 51
33.298089
  0
ARC
  8
APS_GEOMETRY
 10
-0.337279
 20
1.206512
 40
1.093604
 50
33.299392
 51
35.393704
  0
ARC
  8
APS_GEOMETRY
 10
-4.409481
 20
-1.686623
 40
6.088908
 50
35.39251
 51
35.937028
  0
ARC
  8
APS_GEOMETRY
 10
2.812363
 20
3.548234
 40
2.830664
 50
214.795932
 51
215.936977
  0
ARC
  8
APS_GEOMETRY
 10
1.156959
 20
2.397886
 40
0.814811
 50
211.894272
 51
214.796771
  0
ARC
  8
APS_GEOMETRY
 10
0.972485
 20
2.283078
 40
0.597529
 50
207.054101
 51
211.893566
  0
ARC
  8
APS_GEOMETRY
 10
0.757467
 20
2.173264
 40
0.356092
 50
200.077684
 51
207.053872
  0
ARC
  8
APS_GEOMETRY
 10
0.698483
 20
2.151712
 40
0.293294
 50
190.926145
 51
200.07894
  0
ARC
  8
APS_GEOMETRY
 10
0.641068
 20
2.140624
 40
0.234818
 50
179.999861
 51
190.925236
  0
LINE
  8
APS_GEOMETRY
 10
0.40625
 11
0.40625
 20
2.140625
 21
2.453125
  0
ARC
  8
APS_GEOMETRY
 10
0.3125
 20
2.453125
 40
0.09375
 50
0.0
 51
44.846986
  0
LINE
  8
APS_GEOMETRY
 10
0.378968
 11
0.340484
 20
2.519239
 21
2.557929
  0
ARC
  8
APS_GEOMETRY
 10
0.351563
 20
2.568947
 40
0.015625
 50
179.996343
 51
224.841839
  0
LINE
  8
APS_GEOMETRY
 10
0.335938
 11
0.335938
 20
2.568948
 21
2.888021
  0
ARC
  8
APS_GEOMETRY
 10
0.265625
 20
2.888021
 40
0.070313
 50
0.0
 51
80.994732
  0
ARC
  8
APS_GEOMETRY
 10
0.279076
 20
2.9729
 40
0.015625
 50
189.286801
 51
260.996972
  0
LINE
  8
APS_GEOMETRY
 10
0.263656
 11
0.232942
 20
2.970378
 21
3.15827
  0
ARC
  8
APS_GEOMETRY
 10
0.125
 20
3.140625
 40
0.109375
 50
9.283854
 51
89.999832
  0
LINE
  8
APS_GEOMETRY
 10
0.125
 11
0.0
 20
3.25
 21
3.25
  0
LINE
  8
APS_GEOMETRY
 10
0.0
 11
0.0
 20
3.25
 21
2.625
  0
ARC
  8
APS_GEOMETRY
 10
-0.03125
 20
2.536612
 40
0.09375
 50
0.000212
 51
70.528779
  0
LINE
  8
APS_GEOMETRY
 10
0.0625
 11
0.0625
 20
2.536612
 21
0.713388
  0
ARC
  8
APS_GEOMETRY
 10
-0.03125
 20
0.713388
 40
0.09375
 50
289.471221
 51
0.0
  0
LINE
  8
APS_GEOMETRY
 10
0.0
 11
0.0
 20
0.625
 21
0.0
  0
LINE
  8
APS_GEOMETRY
 10
0.0
 11
0.75
 20
0.0
 21
0.0
  0
LINE
  8
APS_GEOMETRY
 10
0.75
 11
0.75
 20
0.0
 21
1.115702
  0
LINE
  8
CONSTRUCTION
 10
0.152615
 11
0.10065
 20
-1.038482
 21
-1.166909
  0
LINE
  8
CONSTRUCTION
 10
0.10065
 11
0.20458
 20
-1.166909
 21
-1.166909
  0
LINE
  8
CONSTRUCTION
 10
0.20458
 11
0.152615
 20
-1.166909
 21
-1.038482
  0
LINE
  8
CONSTRUCTION
 10
0.152615
 11
0.559547
 20
-1.038482
 21
-1.03848
  0
LINE
  8
CONSTRUCTION
 10
0.559547
 11
0.507582
 20
-1.03848
 21
-1.166908
  0
LINE
  8
CONSTRUCTION
 10
0.507582
 11
0.611512
 20
-1.166908
 21
-1.166908
  0
LINE
  8
CONSTRUCTION
 10
0.611512
 11
0.559547
 20
-1.166908
 21
-1.03848
  0
LINE
  8
CONSTRUCTION
 10
0.559547
 11
0.966478
 20
-1.03848
 21
-1.03848
  0
LINE
  8
CONSTRUCTION
 10
0.966478
 11
0.914513
 20
-1.03848
 21
-1.166908
  0
LINE
  8
CONSTRUCTION
 10
0.914513
 11
1.018442
 20
-1.166908
 21
-1.166908
  0
LINE
  8
CONSTRUCTION
 10
1.018442
 11
0.966478
 20
-1.166908
 21
-1.03848
  0
LINE
  8
CONSTRUCTION
 10
0.966478
 11
1.373408
 20
-1.03848
 21
-1.03848
  0
LINE
  8
CONSTRUCTION
 10
1.373408
 11
1.321443
 20
-1.03848
 21
-1.166908
  0
LINE
  8
CONSTRUCTION
 10
1.321443
 11
1.425373
 20
-1.166908
 21
-1.166908
  0
LINE
  8
CONSTRUCTION
 10
1.425373
 11
1.373408
 20
-1.166908
 21
-1.03848
  0
LINE
  8
CONSTRUCTION
 10
1.373408
 11
1.780281
 20
-1.03848
 21
-1.038482
  0
LINE
  8
CONSTRUCTION
 10
1.780281
 11
1.728316
 20
-1.038482
 21
-1.166909
  0
LINE
  8
CONSTRUCTION
 10
1.728316
 11
1.832246
 20
-1.166909
 21
-1.166909
  0
LINE
  8
CONSTRUCTION
 10
1.832246
 11
1.780281
 20
-1.166909
 21
-1.038482
  0
LINE
  8
CONSTRUCTION
 10
0.0
 11
4.0
 20
-1.561751
 21
-1.561751
  0
TEXT
  8
TEXT
 10
0.10065
 20
-1.405784
 30
0.0
 40
0.224
 50
0.0
  1
DOVETAIL DESIGNS
  0
TEXT
  8
TEXT
 10
2.276036
 20
-1.551751
 30
0.0
 40
0.099
 50
0.0
  1
& MILLWORK INC.
  0
TEXT
  8
TEXT
 10
1.092458
 20
-1.640461
 30
0.0
 40
0.07
 50
0.0
  1
Established 1979
  0
TEXT
  8
TEXT
 10
0.1
 20
-1.8
 30
0.0
 40
0.1
 50
0.0
  1
Phone: (406) 248-5010    Website: www.dovetailmt.com
  0
TEXT
  8
TEXT
 10
0.0
 20
-0.5
 30
0.0
 40
0.1
 50
0.0
  1
3/4"x3-1/4"
  0
TEXT
  8
TEXT
 10
0.0
 20
-0.25
 30
0.0
 40
0.15625
 50
0.0
  1
CS84
  0
ENDSEC
  0
EOF
