  0
SECTION
  2
ENTITIES
  0
ARC
  8
MOULD-NEW
 10
0.139323
 20
2.71875
 40
0.423177
 50
0.0
 51
38.88007
  0
ARC
  8
MOULD-NEW
 10
0.798177
 20
3.25
 40
0.423177
 50
183.943214
 51
218.880076
  0
ARC
  8
MOULD-NEW
 10
0.344826
 20
3.21875
 40
0.03125
 50
3.943234
 51
89.999582
  0
LINE
  8
MOULD-NEW
 10
0.344826
 11
0.0
 20
3.25
 21
3.25
  0
LINE
  8
MOULD-NEW
 10
0.0
 11
0.0
 20
3.25
 21
2.75
  0
ARC
  8
MOULD-NEW
 10
-0.03125
 20
2.661612
 40
0.09375
 50
0.000212
 51
70.528779
  0
LINE
  8
MOULD-NEW
 10
0.0625
 11
0.0625
 20
2.661612
 21
0.713388
  0
ARC
  8
MOULD-NEW
 10
-0.03125
 20
0.713388
 40
0.09375
 50
289.471221
 51
0.0
  0
LINE
  8
MOULD-NEW
 10
0.0
 11
0.0
 20
0.625
 21
0.0
  0
LINE
  8
MOULD-NEW
 10
0.0
 11
0.78125
 20
0.0
 21
0.0
  0
ARC
  8
MOULD-NEW
 10
0.78125
 20
0.03125
 40
0.03125
 50
270.0
 51
0.0
  0
LINE
  8
MOULD-NEW
 10
0.8125
 11
0.8125
 20
0.03125
 21
0.703125
  0
ARC
  8
MOULD-NEW
 10
0.724826
 20
0.703125
 40
0.087674
 50
0.0
 51
78.578814
  0
ARC
  8
MOULD-NEW
 10
0.759549
 20
0.875001
 40
0.087674
 50
180.000416
 51
258.578398
  0
LINE
  8
MOULD-NEW
 10
0.671875
 11
0.671875
 20
0.875
 21
2.613296
  0
ARC
  8
MOULD-NEW
 10
0.578125
 20
2.613296
 40
0.09375
 50
0.0
 51
70.0
  0
LINE
  8
MOULD-NEW
 10
0.610189
 11
0.5625
 20
2.701392
 21
2.71875
  0
LINE
  8
CONSTRUCTION
 10
0.152615
 11
0.10065
 20
-1.038482
 21
-1.166909
  0
LINE
  8
CONSTRUCTION
 10
0.10065
 11
0.20458
 20
-1.166909
 21
-1.166909
  0
LINE
  8
CONSTRUCTION
 10
0.20458
 11
0.152615
 20
-1.166909
 21
-1.038482
  0
LINE
  8
CONSTRUCTION
 10
0.152615
 11
0.559547
 20
-1.038482
 21
-1.03848
  0
LINE
  8
CONSTRUCTION
 10
0.559547
 11
0.507582
 20
-1.03848
 21
-1.166908
  0
LINE
  8
CONSTRUCTION
 10
0.507582
 11
0.611512
 20
-1.166908
 21
-1.166908
  0
LINE
  8
CONSTRUCTION
 10
0.611512
 11
0.559547
 20
-1.166908
 21
-1.03848
  0
LINE
  8
CONSTRUCTION
 10
0.559547
 11
0.966478
 20
-1.03848
 21
-1.03848
  0
LINE
  8
CONSTRUCTION
 10
0.966478
 11
0.914513
 20
-1.03848
 21
-1.166908
  0
LINE
  8
CONSTRUCTION
 10
0.914513
 11
1.018442
 20
-1.166908
 21
-1.166908
  0
LINE
  8
CONSTRUCTION
 10
1.018442
 11
0.966478
 20
-1.166908
 21
-1.03848
  0
LINE
  8
CONSTRUCTION
 10
0.966478
 11
1.373408
 20
-1.03848
 21
-1.03848
  0
LINE
  8
CONSTRUCTION
 10
1.373408
 11
1.321443
 20
-1.03848
 21
-1.166908
  0
LINE
  8
CONSTRUCTION
 10
1.321443
 11
1.425373
 20
-1.166908
 21
-1.166908
  0
LINE
  8
CONSTRUCTION
 10
1.425373
 11
1.373408
 20
-1.166908
 21
-1.03848
  0
LINE
  8
CONSTRUCTION
 10
1.373408
 11
1.780281
 20
-1.03848
 21
-1.038482
  0
LINE
  8
CONSTRUCTION
 10
1.780281
 11
1.728316
 20
-1.038482
 21
-1.166909
  0
LINE
  8
CONSTRUCTION
 10
1.728316
 11
1.832246
 20
-1.166909
 21
-1.166909
  0
LINE
  8
CONSTRUCTION
 10
1.832246
 11
1.780281
 20
-1.166909
 21
-1.038482
  0
LINE
  8
CONSTRUCTION
 10
0.0
 11
4.0
 20
-1.561751
 21
-1.561751
  0
TEXT
  8
TEXT
 10
0.10065
 20
-1.405784
 30
0.0
 40
0.224
 50
0.0
  1
DOVETAIL DESIGNS
  0
TEXT
  8
TEXT
 10
2.276036
 20
-1.551751
 30
0.0
 40
0.099
 50
0.0
  1
& MILLWORK INC.
  0
TEXT
  8
TEXT
 10
1.092458
 20
-1.640461
 30
0.0
 40
0.07
 50
0.0
  1
Established 1979
  0
TEXT
  8
TEXT
 10
0.1
 20
-1.8
 30
0.0
 40
0.1
 50
0.0
  1
Phone: (406) 248-5010    Website: www.dovetailmt.com
  0
TEXT
  8
TEXT
 10
0.0
 20
-0.25
 30
0.0
 40
0.15625
 50
0.0
  1
CS83
  0
TEXT
  8
TEXT
 10
0.0
 20
-0.5
 30
0.0
 40
0.1
 50
0.0
  1
13/16"x3-1/4"
  0
ENDSEC
  0
EOF
