  0
SECTION
  2
ENTITIES
  0
ARC
  8
MOULD-NEW
 10
0.084961
 20
2.96875
 40
0.493164
 50
0.0
 51
41.708916
  0
ARC
  8
MOULD-NEW
 10
0.821289
 20
3.625
 40
0.493164
 50
180.0
 51
221.708916
  0
LINE
  8
MOULD-NEW
 10
0.328125
 11
0.0
 20
3.625
 21
3.625
  0
LINE
  8
MOULD-NEW
 10
0.0
 11
0.0
 20
3.625
 21
3.0625
  0
ARC
  8
MOULD-NEW
 10
-0.03125
 20
2.974112
 40
0.09375
 50
0.000212
 51
70.528779
  0
LINE
  8
MOULD-NEW
 10
0.0625
 11
0.0625
 20
2.974112
 21
0.650888
  0
ARC
  8
MOULD-NEW
 10
-0.03125
 20
0.650888
 40
0.09375
 50
289.471221
 51
0.0
  0
LINE
  8
MOULD-NEW
 10
0.0
 11
0.0
 20
0.5625
 21
0.0
  0
LINE
  8
MOULD-NEW
 10
0.0
 11
0.65625
 20
0.0
 21
0.0
  0
ARC
  8
MOULD-NEW
 10
0.65625
 20
0.21875
 40
0.21875
 50
270.0
 51
0.0
  0
LINE
  8
MOULD-NEW
 10
0.875
 11
0.875
 20
0.21875
 21
0.808399
  0
LINE
  8
MOULD-NEW
 10
0.875
 11
0.828125
 20
0.808399
 21
0.8125
  0
ARC
  8
MOULD-NEW
 10
0.577567
 20
0.8125
 40
0.250558
 50
0.0
 51
38.580092
  0
ARC
  8
MOULD-NEW
 10
0.969308
 20
1.125
 40
0.250558
 50
180.0
 51
218.580092
  0
LINE
  8
MOULD-NEW
 10
0.71875
 11
0.671875
 20
1.125
 21
1.129101
  0
LINE
  8
MOULD-NEW
 10
0.671875
 11
0.671875
 20
1.129101
 21
2.960548
  0
LINE
  8
MOULD-NEW
 10
0.671875
 11
0.578125
 20
2.960548
 21
2.96875
  0
LINE
  8
CONSTRUCTION
 10
0.152615
 11
0.10065
 20
-1.038482
 21
-1.166909
  0
LINE
  8
CONSTRUCTION
 10
0.10065
 11
0.20458
 20
-1.166909
 21
-1.166909
  0
LINE
  8
CONSTRUCTION
 10
0.20458
 11
0.152615
 20
-1.166909
 21
-1.038482
  0
LINE
  8
CONSTRUCTION
 10
0.152615
 11
0.559547
 20
-1.038482
 21
-1.03848
  0
LINE
  8
CONSTRUCTION
 10
0.559547
 11
0.507582
 20
-1.03848
 21
-1.166908
  0
LINE
  8
CONSTRUCTION
 10
0.507582
 11
0.611512
 20
-1.166908
 21
-1.166908
  0
LINE
  8
CONSTRUCTION
 10
0.611512
 11
0.559547
 20
-1.166908
 21
-1.03848
  0
LINE
  8
CONSTRUCTION
 10
0.559547
 11
0.966478
 20
-1.03848
 21
-1.03848
  0
LINE
  8
CONSTRUCTION
 10
0.966478
 11
0.914513
 20
-1.03848
 21
-1.166908
  0
LINE
  8
CONSTRUCTION
 10
0.914513
 11
1.018442
 20
-1.166908
 21
-1.166908
  0
LINE
  8
CONSTRUCTION
 10
1.018442
 11
0.966478
 20
-1.166908
 21
-1.03848
  0
LINE
  8
CONSTRUCTION
 10
0.966478
 11
1.373408
 20
-1.03848
 21
-1.03848
  0
LINE
  8
CONSTRUCTION
 10
1.373408
 11
1.321443
 20
-1.03848
 21
-1.166908
  0
LINE
  8
CONSTRUCTION
 10
1.321443
 11
1.425373
 20
-1.166908
 21
-1.166908
  0
LINE
  8
CONSTRUCTION
 10
1.425373
 11
1.373408
 20
-1.166908
 21
-1.03848
  0
LINE
  8
CONSTRUCTION
 10
1.373408
 11
1.780281
 20
-1.03848
 21
-1.038482
  0
LINE
  8
CONSTRUCTION
 10
1.780281
 11
1.728316
 20
-1.038482
 21
-1.166909
  0
LINE
  8
CONSTRUCTION
 10
1.728316
 11
1.832246
 20
-1.166909
 21
-1.166909
  0
LINE
  8
CONSTRUCTION
 10
1.832246
 11
1.780281
 20
-1.166909
 21
-1.038482
  0
LINE
  8
CONSTRUCTION
 10
0.0
 11
4.0
 20
-1.561751
 21
-1.561751
  0
TEXT
  8
TEXT
 10
0.10065
 20
-1.405784
 30
0.0
 40
0.224
 50
0.0
  1
DOVETAIL DESIGNS
  0
TEXT
  8
TEXT
 10
2.276036
 20
-1.551751
 30
0.0
 40
0.099
 50
0.0
  1
& MILLWORK INC.
  0
TEXT
  8
TEXT
 10
1.092458
 20
-1.640461
 30
0.0
 40
0.07
 50
0.0
  1
Established 1979
  0
TEXT
  8
TEXT
 10
0.1
 20
-1.8
 30
0.0
 40
0.1
 50
0.0
  1
Phone: (406) 248-5010    Website: www.dovetailmt.com
  0
TEXT
  8
TEXT
 10
0.0
 20
-0.5
 30
0.0
 40
0.1
 50
0.0
  1
7/8"x3-5/8"
  0
TEXT
  8
TEXT
 10
0.0
 20
-0.25
 30
0.0
 40
0.15625
 50
0.0
  1
CS82
  0
ENDSEC
  0
EOF
