  0
SECTION
  2
ENTITIES
  0
ARC
  8
MOULD-NEW
 10
0.71944
 20
2.216399
 40
0.007813
 50
112.5
 51
258.871014
  0
ARC
  8
MOULD-NEW
 10
0.695306
 20
2.09375
 40
0.117188
 50
270.003653
 51
78.867535
  0
ARC
  8
MOULD-NEW
 10
0.695401
 20
1.968749
 40
0.007813
 50
90.64821
 51
269.35179
  0
ARC
  8
MOULD-NEW
 10
0.694971
 20
1.843749
 40
0.117188
 50
270.167371
 51
89.832629
  0
ARC
  8
MOULD-NEW
 10
0.695401
 20
1.718749
 40
0.007813
 50
90.64821
 51
269.35179
  0
ARC
  8
MOULD-NEW
 10
0.695308
 20
1.593749
 40
0.117188
 50
281.131518
 51
89.997515
  0
ARC
  8
MOULD-NEW
 10
0.719442
 20
1.4711
 40
0.007813
 50
101.1433
 51
247.480905
  0
LINE
  8
MOULD-NEW
 10
0.71645
 11
0.8125
 20
1.463883
 21
1.424098
  0
LINE
  8
MOULD-NEW
 10
0.8125
 11
0.8125
 20
1.424098
 21
0.0
  0
LINE
  8
MOULD-NEW
 10
0.8125
 11
0.0
 20
0.0
 21
0.0
  0
LINE
  8
MOULD-NEW
 10
0.0
 11
0.0
 20
0.0
 21
0.9375
  0
ARC
  8
MOULD-NEW
 10
-0.03125
 20
1.025888
 40
0.09375
 50
289.471221
 51
359.999788
  0
LINE
  8
MOULD-NEW
 10
0.0625
 11
0.0625
 20
1.025888
 21
3.349112
  0
ARC
  8
MOULD-NEW
 10
-0.03125
 20
3.349112
 40
0.09375
 50
0.0
 51
70.528779
  0
LINE
  8
MOULD-NEW
 10
0.0
 11
0.0
 20
3.4375
 21
4.375
  0
LINE
  8
MOULD-NEW
 10
0.0
 11
0.15625
 20
4.375
 21
4.375
  0
LINE
  8
MOULD-NEW
 10
0.15625
 11
0.15625
 20
4.375
 21
4.1875
  0
LINE
  8
MOULD-NEW
 10
0.15625
 11
0.65625
 20
4.1875
 21
3.6875
  0
LINE
  8
MOULD-NEW
 10
0.65625
 11
0.8125
 20
3.6875
 21
3.6875
  0
LINE
  8
MOULD-NEW
 10
0.8125
 11
0.8125
 20
3.6875
 21
2.263402
  0
LINE
  8
MOULD-NEW
 10
0.8125
 11
0.71645
 20
2.263402
 21
2.223617
  0
LINE
  8
CONSTRUCTION
 10
0.152615
 11
0.10065
 20
-1.038482
 21
-1.166909
  0
LINE
  8
CONSTRUCTION
 10
0.10065
 11
0.20458
 20
-1.166909
 21
-1.166909
  0
LINE
  8
CONSTRUCTION
 10
0.20458
 11
0.152615
 20
-1.166909
 21
-1.038482
  0
LINE
  8
CONSTRUCTION
 10
0.152615
 11
0.559547
 20
-1.038482
 21
-1.03848
  0
LINE
  8
CONSTRUCTION
 10
0.559547
 11
0.507582
 20
-1.03848
 21
-1.166908
  0
LINE
  8
CONSTRUCTION
 10
0.507582
 11
0.611512
 20
-1.166908
 21
-1.166908
  0
LINE
  8
CONSTRUCTION
 10
0.611512
 11
0.559547
 20
-1.166908
 21
-1.03848
  0
LINE
  8
CONSTRUCTION
 10
0.559547
 11
0.966478
 20
-1.03848
 21
-1.03848
  0
LINE
  8
CONSTRUCTION
 10
0.966478
 11
0.914513
 20
-1.03848
 21
-1.166908
  0
LINE
  8
CONSTRUCTION
 10
0.914513
 11
1.018442
 20
-1.166908
 21
-1.166908
  0
LINE
  8
CONSTRUCTION
 10
1.018442
 11
0.966478
 20
-1.166908
 21
-1.03848
  0
LINE
  8
CONSTRUCTION
 10
0.966478
 11
1.373408
 20
-1.03848
 21
-1.03848
  0
LINE
  8
CONSTRUCTION
 10
1.373408
 11
1.321443
 20
-1.03848
 21
-1.166908
  0
LINE
  8
CONSTRUCTION
 10
1.321443
 11
1.425373
 20
-1.166908
 21
-1.166908
  0
LINE
  8
CONSTRUCTION
 10
1.425373
 11
1.373408
 20
-1.166908
 21
-1.03848
  0
LINE
  8
CONSTRUCTION
 10
1.373408
 11
1.780281
 20
-1.03848
 21
-1.038482
  0
LINE
  8
CONSTRUCTION
 10
1.780281
 11
1.728316
 20
-1.038482
 21
-1.166909
  0
LINE
  8
CONSTRUCTION
 10
1.728316
 11
1.832246
 20
-1.166909
 21
-1.166909
  0
LINE
  8
CONSTRUCTION
 10
1.832246
 11
1.780281
 20
-1.166909
 21
-1.038482
  0
LINE
  8
CONSTRUCTION
 10
0.0
 11
4.0
 20
-1.561751
 21
-1.561751
  0
TEXT
  8
TEXT
 10
0.10065
 20
-1.405784
 30
0.0
 40
0.224
 50
0.0
  1
DOVETAIL DESIGNS
  0
TEXT
  8
TEXT
 10
2.276036
 20
-1.551751
 30
0.0
 40
0.099
 50
0.0
  1
& MILLWORK INC.
  0
TEXT
  8
TEXT
 10
1.092458
 20
-1.640461
 30
0.0
 40
0.07
 50
0.0
  1
Established 1979
  0
TEXT
  8
TEXT
 10
0.1
 20
-1.8
 30
0.0
 40
0.1
 50
0.0
  1
Phone: (406) 248-5010    Website: www.dovetailmt.com
  0
TEXT
  8
TEXT
 10
0.0
 20
-0.25
 30
0.0
 40
0.15625
 50
0.0
  1
CS81
  0
TEXT
  8
TEXT
 10
0.0
 20
-0.5
 30
0.0
 40
0.1
 50
0.0
  1
13/16"x4-3/8"
  0
ENDSEC
  0
EOF
