  0
SECTION
  2
ENTITIES
  0
ARC
  8
MOULD-NEW
 10
0.234375
 20
0.0625
 40
0.0625
 50
270.0
 51
0.0
  0
LINE
  8
MOULD-NEW
 10
0.296875
 11
0.296875
 20
0.0625
 21
0.166667
  0
ARC
  8
MOULD-NEW
 10
0.296875
 20
0.491259
 40
0.324592
 50
270.0
 51
293.71672
  0
ARC
  8
MOULD-NEW
 10
0.288349
 20
0.51067
 40
0.345793
 50
293.716471
 51
316.684438
  0
ARC
  8
MOULD-NEW
 10
0.275097
 20
0.523162
 40
0.364005
 50
316.684791
 51
338.667297
  0
ARC
  8
MOULD-NEW
 10
0.254389
 20
0.53125
 40
0.386236
 50
338.66724
 51
0.000032
  0
LINE
  8
MOULD-NEW
 10
0.640625
 11
0.703125
 20
0.53125
 21
0.53125
  0
ARC
  8
MOULD-NEW
 10
0.703125
 20
0.5625
 40
0.03125
 50
270.0
 51
0.0
  0
LINE
  8
MOULD-NEW
 10
0.734375
 11
0.734375
 20
0.5625
 21
2.4375
  0
ARC
  8
MOULD-NEW
 10
0.703125
 20
2.4375
 40
0.03125
 50
0.0
 51
90.0
  0
LINE
  8
MOULD-NEW
 10
0.703125
 11
0.640625
 20
2.46875
 21
2.46875
  0
ARC
  8
MOULD-NEW
 10
0.254389
 20
2.46875
 40
0.386236
 50
0.0
 51
21.332843
  0
ARC
  8
MOULD-NEW
 10
0.275097
 20
2.476837
 40
0.364005
 50
21.33287
 51
43.315283
  0
ARC
  8
MOULD-NEW
 10
0.288347
 20
2.489331
 40
0.345793
 50
43.315162
 51
66.283139
  0
ARC
  8
MOULD-NEW
 10
0.296876
 20
2.508741
 40
0.324592
 50
66.283488
 51
90.000254
  0
LINE
  8
MOULD-NEW
 10
0.296875
 11
0.296875
 20
2.833333
 21
2.9375
  0
ARC
  8
MOULD-NEW
 10
0.234375
 20
2.9375
 40
0.0625
 50
0.0
 51
90.0
  0
LINE
  8
MOULD-NEW
 10
0.234375
 11
0.0
 20
3.0
 21
3.0
  0
LINE
  8
MOULD-NEW
 10
0.0
 11
0.0
 20
3.0
 21
2.25
  0
ARC
  8
MOULD-NEW
 10
-0.03125
 20
2.161612
 40
0.09375
 50
0.000212
 51
70.528779
  0
LINE
  8
MOULD-NEW
 10
0.0625
 11
0.0625
 20
2.161612
 21
0.838388
  0
ARC
  8
MOULD-NEW
 10
-0.03125
 20
0.838388
 40
0.09375
 50
289.471221
 51
0.0
  0
LINE
  8
MOULD-NEW
 10
0.0
 11
0.0
 20
0.75
 21
0.0
  0
LINE
  8
MOULD-NEW
 10
0.0
 11
0.234375
 20
0.0
 21
0.0
  0
LINE
  8
CONSTRUCTION
 10
0.152615
 11
0.10065
 20
-1.038482
 21
-1.166909
  0
LINE
  8
CONSTRUCTION
 10
0.10065
 11
0.20458
 20
-1.166909
 21
-1.166909
  0
LINE
  8
CONSTRUCTION
 10
0.20458
 11
0.152615
 20
-1.166909
 21
-1.038482
  0
LINE
  8
CONSTRUCTION
 10
0.152615
 11
0.559547
 20
-1.038482
 21
-1.03848
  0
LINE
  8
CONSTRUCTION
 10
0.559547
 11
0.507582
 20
-1.03848
 21
-1.166908
  0
LINE
  8
CONSTRUCTION
 10
0.507582
 11
0.611512
 20
-1.166908
 21
-1.166908
  0
LINE
  8
CONSTRUCTION
 10
0.611512
 11
0.559547
 20
-1.166908
 21
-1.03848
  0
LINE
  8
CONSTRUCTION
 10
0.559547
 11
0.966478
 20
-1.03848
 21
-1.03848
  0
LINE
  8
CONSTRUCTION
 10
0.966478
 11
0.914513
 20
-1.03848
 21
-1.166908
  0
LINE
  8
CONSTRUCTION
 10
0.914513
 11
1.018442
 20
-1.166908
 21
-1.166908
  0
LINE
  8
CONSTRUCTION
 10
1.018442
 11
0.966478
 20
-1.166908
 21
-1.03848
  0
LINE
  8
CONSTRUCTION
 10
0.966478
 11
1.373408
 20
-1.03848
 21
-1.03848
  0
LINE
  8
CONSTRUCTION
 10
1.373408
 11
1.321443
 20
-1.03848
 21
-1.166908
  0
LINE
  8
CONSTRUCTION
 10
1.321443
 11
1.425373
 20
-1.166908
 21
-1.166908
  0
LINE
  8
CONSTRUCTION
 10
1.425373
 11
1.373408
 20
-1.166908
 21
-1.03848
  0
LINE
  8
CONSTRUCTION
 10
1.373408
 11
1.780281
 20
-1.03848
 21
-1.038482
  0
LINE
  8
CONSTRUCTION
 10
1.780281
 11
1.728316
 20
-1.038482
 21
-1.166909
  0
LINE
  8
CONSTRUCTION
 10
1.728316
 11
1.832246
 20
-1.166909
 21
-1.166909
  0
LINE
  8
CONSTRUCTION
 10
1.832246
 11
1.780281
 20
-1.166909
 21
-1.038482
  0
LINE
  8
CONSTRUCTION
 10
0.0
 11
4.0
 20
-1.561751
 21
-1.561751
  0
TEXT
  8
TEXT
 10
0.10065
 20
-1.405784
 30
0.0
 40
0.224
 50
0.0
  1
DOVETAIL DESIGNS
  0
TEXT
  8
TEXT
 10
2.276036
 20
-1.551751
 30
0.0
 40
0.099
 50
0.0
  1
& MILLWORK INC.
  0
TEXT
  8
TEXT
 10
1.092458
 20
-1.640461
 30
0.0
 40
0.07
 50
0.0
  1
Established 1979
  0
TEXT
  8
TEXT
 10
0.1
 20
-1.8
 30
0.0
 40
0.1
 50
0.0
  1
Phone: (406) 248-5010    Website: www.dovetailmt.com
  0
TEXT
  8
TEXT
 10
0.0
 20
-0.5
 30
0.0
 40
0.1
 50
0.0
  1
3/4"x2-1/4"min
  0
TEXT
  8
TEXT
 10
0.0
 20
-0.25
 30
0.0
 40
0.15625
 50
0.0
  1
CS76
  0
ENDSEC
  0
EOF
