  0
SECTION
  2
ENTITIES
  0
ARC
  8
MOULD-NEW
 10
0.407608
 20
3.5
 40
0.204483
 50
180.0
 51
263.393242
  0
LINE
  8
MOULD-NEW
 10
0.384081
 11
0.384081
 20
3.296875
 21
3.146041
  0
ARC
  8
MOULD-NEW
 10
0.384081
 20
2.989791
 40
0.15625
 50
270.0
 51
90.0
  0
ARC
  8
MOULD-NEW
 10
1.345998
 20
2.792907
 40
0.962775
 50
177.581102
 51
229.345166
  0
ARC
  8
MOULD-NEW
 10
0.061944
 20
1.297673
 40
1.008143
 50
29.453971
 51
49.345209
  0
ARC
  8
MOULD-NEW
 10
0.640624
 20
1.624462
 40
0.343567
 50
272.606758
 51
29.453826
  0
LINE
  8
MOULD-NEW
 10
0.65625
 11
0.65625
 20
1.28125
 21
0.84375
  0
LINE
  8
MOULD-NEW
 10
0.65625
 11
0.75
 20
0.84375
 21
0.835548
  0
ARC
  8
MOULD-NEW
 10
0.976316
 20
0.835548
 40
0.226316
 50
180.0
 51
272.040586
  0
LINE
  8
MOULD-NEW
 10
0.984375
 11
0.984375
 20
0.609376
 21
0.15625
  0
ARC
  8
MOULD-NEW
 10
0.828125
 20
0.15625
 40
0.15625
 50
270.0
 51
0.0
  0
LINE
  8
MOULD-NEW
 10
0.828125
 11
0.0
 20
0.0
 21
0.0
  0
LINE
  8
MOULD-NEW
 10
0.0
 11
0.0
 20
0.0
 21
0.5
  0
ARC
  8
MOULD-NEW
 10
-0.03125
 20
0.588388
 40
0.09375
 50
289.471221
 51
359.999788
  0
LINE
  8
MOULD-NEW
 10
0.0625
 11
0.0625
 20
0.588388
 21
2.911612
  0
ARC
  8
MOULD-NEW
 10
-0.03125
 20
2.911612
 40
0.09375
 50
0.0
 51
70.528779
  0
LINE
  8
MOULD-NEW
 10
0.0
 11
0.0
 20
3.0
 21
3.5
  0
LINE
  8
MOULD-NEW
 10
0.0
 11
0.203125
 20
3.5
 21
3.5
  0
LINE
  8
CONSTRUCTION
 10
0.152615
 11
0.10065
 20
-1.038482
 21
-1.166909
  0
LINE
  8
CONSTRUCTION
 10
0.10065
 11
0.20458
 20
-1.166909
 21
-1.166909
  0
LINE
  8
CONSTRUCTION
 10
0.20458
 11
0.152615
 20
-1.166909
 21
-1.038482
  0
LINE
  8
CONSTRUCTION
 10
0.152615
 11
0.559547
 20
-1.038482
 21
-1.03848
  0
LINE
  8
CONSTRUCTION
 10
0.559547
 11
0.507582
 20
-1.03848
 21
-1.166908
  0
LINE
  8
CONSTRUCTION
 10
0.507582
 11
0.611512
 20
-1.166908
 21
-1.166908
  0
LINE
  8
CONSTRUCTION
 10
0.611512
 11
0.559547
 20
-1.166908
 21
-1.03848
  0
LINE
  8
CONSTRUCTION
 10
0.559547
 11
0.966478
 20
-1.03848
 21
-1.03848
  0
LINE
  8
CONSTRUCTION
 10
0.966478
 11
0.914513
 20
-1.03848
 21
-1.166908
  0
LINE
  8
CONSTRUCTION
 10
0.914513
 11
1.018442
 20
-1.166908
 21
-1.166908
  0
LINE
  8
CONSTRUCTION
 10
1.018442
 11
0.966478
 20
-1.166908
 21
-1.03848
  0
LINE
  8
CONSTRUCTION
 10
0.966478
 11
1.373408
 20
-1.03848
 21
-1.03848
  0
LINE
  8
CONSTRUCTION
 10
1.373408
 11
1.321443
 20
-1.03848
 21
-1.166908
  0
LINE
  8
CONSTRUCTION
 10
1.321443
 11
1.425373
 20
-1.166908
 21
-1.166908
  0
LINE
  8
CONSTRUCTION
 10
1.425373
 11
1.373408
 20
-1.166908
 21
-1.03848
  0
LINE
  8
CONSTRUCTION
 10
1.373408
 11
1.780281
 20
-1.03848
 21
-1.038482
  0
LINE
  8
CONSTRUCTION
 10
1.780281
 11
1.728316
 20
-1.038482
 21
-1.166909
  0
LINE
  8
CONSTRUCTION
 10
1.728316
 11
1.832246
 20
-1.166909
 21
-1.166909
  0
LINE
  8
CONSTRUCTION
 10
1.832246
 11
1.780281
 20
-1.166909
 21
-1.038482
  0
LINE
  8
CONSTRUCTION
 10
0.0
 11
4.0
 20
-1.561751
 21
-1.561751
  0
TEXT
  8
TEXT
 10
0.10065
 20
-1.405784
 30
0.0
 40
0.224
 50
0.0
  1
DOVETAIL DESIGNS
  0
TEXT
  8
TEXT
 10
2.276036
 20
-1.551751
 30
0.0
 40
0.099
 50
0.0
  1
& MILLWORK INC.
  0
TEXT
  8
TEXT
 10
1.092458
 20
-1.640461
 30
0.0
 40
0.07
 50
0.0
  1
Established 1979
  0
TEXT
  8
TEXT
 10
0.1
 20
-1.8
 30
0.0
 40
0.1
 50
0.0
  1
Phone: (406) 248-5010    Website: www.dovetailmt.com
  0
TEXT
  8
TEXT
 10
0.0
 20
-0.5
 30
0.0
 40
0.1
 50
0.0
  1
1"x3-1/2"
  0
TEXT
  8
TEXT
 10
0.0
 20
-0.25
 30
0.0
 40
0.15625
 50
0.0
  1
CS34
  0
ENDSEC
  0
EOF
