  0
SECTION
  2
ENTITIES
  0
ARC
  8
MOULD-NEW
 10
0.734375
 20
1.016153
 40
0.15625
 50
180.0
 51
245.0
  0
LINE
  8
MOULD-NEW
 10
0.668341
 11
0.698289
 20
0.874542
 21
0.860577
  0
ARC
  8
MOULD-NEW
 10
0.671875
 20
0.803933
 40
0.0625
 50
0.000064
 51
64.999637
  0
LINE
  8
MOULD-NEW
 10
0.734375
 11
0.734375
 20
0.803933
 21
0.0
  0
LINE
  8
MOULD-NEW
 10
0.734375
 11
0.0
 20
0.0
 21
0.0
  0
LINE
  8
MOULD-NEW
 10
0.0
 11
0.0
 20
0.0
 21
0.84375
  0
ARC
  8
MOULD-NEW
 10
-0.03125
 20
0.932138
 40
0.09375
 50
289.471221
 51
359.999788
  0
LINE
  8
MOULD-NEW
 10
0.0625
 11
0.0625
 20
0.932138
 21
3.755362
  0
ARC
  8
MOULD-NEW
 10
-0.03125
 20
3.755362
 40
0.09375
 50
0.0
 51
70.528779
  0
LINE
  8
MOULD-NEW
 10
0.0
 11
0.0
 20
3.84375
 21
4.6875
  0
LINE
  8
MOULD-NEW
 10
0.0
 11
0.734375
 20
4.6875
 21
4.6875
  0
LINE
  8
MOULD-NEW
 10
0.734375
 11
0.734375
 20
4.6875
 21
3.883567
  0
ARC
  8
MOULD-NEW
 10
0.671875
 20
3.883567
 40
0.0625
 50
295.0
 51
0.0
  0
LINE
  8
MOULD-NEW
 10
0.698289
 11
0.668341
 20
3.826923
 21
3.812958
  0
ARC
  8
MOULD-NEW
 10
0.734375
 20
3.671347
 40
0.15625
 50
114.999958
 51
180.000132
  0
LINE
  8
MOULD-NEW
 10
0.578125
 11
0.578125
 20
3.671347
 21
3.322192
  0
ARC
  8
MOULD-NEW
 10
0.484375
 20
3.322192
 40
0.09375
 50
295.0
 51
0.0
  0
LINE
  8
MOULD-NEW
 10
0.523995
 11
0.484375
 20
3.237226
 21
3.21875
  0
ARC
  8
MOULD-NEW
 10
-1.15625
 20
2.34375
 40
1.859375
 50
331.927513
 51
28.072487
  0
LINE
  8
MOULD-NEW
 10
0.484375
 11
0.523995
 20
1.46875
 21
1.450275
  0
ARC
  8
MOULD-NEW
 10
0.484375
 20
1.365308
 40
0.09375
 50
359.999738
 51
65.000312
  0
LINE
  8
MOULD-NEW
 10
0.578125
 11
0.578125
 20
1.365308
 21
1.016153
  0
LINE
  8
CONSTRUCTION
 10
0.152615
 11
0.10065
 20
-1.038482
 21
-1.166909
  0
LINE
  8
CONSTRUCTION
 10
0.10065
 11
0.20458
 20
-1.166909
 21
-1.166909
  0
LINE
  8
CONSTRUCTION
 10
0.20458
 11
0.152615
 20
-1.166909
 21
-1.038482
  0
LINE
  8
CONSTRUCTION
 10
0.152615
 11
0.559547
 20
-1.038482
 21
-1.03848
  0
LINE
  8
CONSTRUCTION
 10
0.559547
 11
0.507582
 20
-1.03848
 21
-1.166908
  0
LINE
  8
CONSTRUCTION
 10
0.507582
 11
0.611512
 20
-1.166908
 21
-1.166908
  0
LINE
  8
CONSTRUCTION
 10
0.611512
 11
0.559547
 20
-1.166908
 21
-1.03848
  0
LINE
  8
CONSTRUCTION
 10
0.559547
 11
0.966478
 20
-1.03848
 21
-1.03848
  0
LINE
  8
CONSTRUCTION
 10
0.966478
 11
0.914513
 20
-1.03848
 21
-1.166908
  0
LINE
  8
CONSTRUCTION
 10
0.914513
 11
1.018442
 20
-1.166908
 21
-1.166908
  0
LINE
  8
CONSTRUCTION
 10
1.018442
 11
0.966478
 20
-1.166908
 21
-1.03848
  0
LINE
  8
CONSTRUCTION
 10
0.966478
 11
1.373408
 20
-1.03848
 21
-1.03848
  0
LINE
  8
CONSTRUCTION
 10
1.373408
 11
1.321443
 20
-1.03848
 21
-1.166908
  0
LINE
  8
CONSTRUCTION
 10
1.321443
 11
1.425373
 20
-1.166908
 21
-1.166908
  0
LINE
  8
CONSTRUCTION
 10
1.425373
 11
1.373408
 20
-1.166908
 21
-1.03848
  0
LINE
  8
CONSTRUCTION
 10
1.373408
 11
1.780281
 20
-1.03848
 21
-1.038482
  0
LINE
  8
CONSTRUCTION
 10
1.780281
 11
1.728316
 20
-1.038482
 21
-1.166909
  0
LINE
  8
CONSTRUCTION
 10
1.728316
 11
1.832246
 20
-1.166909
 21
-1.166909
  0
LINE
  8
CONSTRUCTION
 10
1.832246
 11
1.780281
 20
-1.166909
 21
-1.038482
  0
LINE
  8
CONSTRUCTION
 10
0.0
 11
4.0
 20
-1.561751
 21
-1.561751
  0
TEXT
  8
TEXT
 10
0.10065
 20
-1.405784
 30
0.0
 40
0.224
 50
0.0
  1
DOVETAIL DESIGNS
  0
TEXT
  8
TEXT
 10
2.276036
 20
-1.551751
 30
0.0
 40
0.099
 50
0.0
  1
& MILLWORK INC.
  0
TEXT
  8
TEXT
 10
1.092458
 20
-1.640461
 30
0.0
 40
0.07
 50
0.0
  1
Established 1979
  0
TEXT
  8
TEXT
 10
0.1
 20
-1.8
 30
0.0
 40
0.1
 50
0.0
  1
Phone: (406) 248-5010    Website: www.dovetailmt.com
  0
TEXT
  8
TEXT
 10
0.0
 20
-0.5
 30
0.0
 40
0.1
 50
0.0
  1
3/4"x4-11/16"
  0
TEXT
  8
TEXT
 10
0.0
 20
-0.25
 30
0.0
 40
0.15625
 50
0.0
  1
CS21
  0
ENDSEC
  0
EOF
