  0
SECTION
  2
ENTITIES
  0
ARC
  8
APS_GEOMETRY
 10
0.510305
 20
1.935632
 40
0.03125
 50
181.816691
 51
257.059884
  0
ARC
  8
APS_GEOMETRY
 10
-0.061123
 20
-0.28702
 40
2.263692
 50
73.245183
 51
75.561499
  0
ARC
  8
APS_GEOMETRY
 10
0.4319
 20
1.350588
 40
0.553478
 50
66.379583
 51
73.246079
  0
ARC
  8
APS_GEOMETRY
 10
0.452095
 20
1.396798
 40
0.503048
 50
61.943734
 51
66.378236
  0
ARC
  8
APS_GEOMETRY
 10
0.379437
 20
1.260452
 40
0.657546
 50
58.283615
 51
61.944521
  0
ARC
  8
APS_GEOMETRY
 10
0.281685
 20
1.102285
 40
0.843482
 50
53.076158
 51
58.283391
  0
ARC
  8
APS_GEOMETRY
 10
-0.176105
 20
0.49306
 40
1.605536
 50
49.960284
 51
53.076908
  0
ARC
  8
APS_GEOMETRY
 10
-0.009299
 20
0.691601
 40
1.346224
 50
46.443762
 51
49.9595
  0
ARC
  8
APS_GEOMETRY
 10
0.240756
 20
0.954579
 40
0.983339
 50
42.080495
 51
46.444034
  0
ARC
  8
APS_GEOMETRY
 10
0.323041
 20
1.028871
 40
0.872479
 50
36.937622
 51
42.080828
  0
ARC
  8
APS_GEOMETRY
 10
0.411125
 20
1.095113
 40
0.762266
 50
31.210279
 51
36.93668
  0
ARC
  8
APS_GEOMETRY
 10
0.355524
 20
1.06141
 40
0.827285
 50
25.927222
 51
31.21124
  0
ARC
  8
APS_GEOMETRY
 10
0.179283
 20
0.975736
 40
1.023246
 50
21.366201
 51
25.926823
  0
ARC
  8
APS_GEOMETRY
 10
0.039236
 20
0.920944
 40
1.17363
 50
17.417151
 51
21.366386
  0
ARC
  8
APS_GEOMETRY
 10
0.025129
 20
0.916531
 40
1.188411
 50
13.602747
 51
17.416554
  0
ARC
  8
APS_GEOMETRY
 10
0.461388
 20
1.02209
 40
0.739563
 50
7.032465
 51
13.603155
  0
ARC
  8
APS_GEOMETRY
 10
0.775875
 20
1.060886
 40
0.422692
 50
357.053467
 51
7.032343
  0
ARC
  8
APS_GEOMETRY
 10
0.809961
 20
1.059129
 40
0.388561
 50
345.088411
 51
357.05379
  0
ARC
  8
APS_GEOMETRY
 10
0.850836
 20
1.048243
 40
0.346261
 50
332.01749
 51
345.088614
  0
ARC
  8
APS_GEOMETRY
 10
0.888522
 20
1.028224
 40
0.303588
 50
317.384294
 51
332.016884
  0
ARC
  8
APS_GEOMETRY
 10
0.820209
 20
1.091075
 40
0.396415
 50
305.648693
 51
317.384262
  0
LINE
  8
APS_GEOMETRY
 10
1.051245
 11
0.984172
 20
0.768946
 21
0.725872
  0
ARC
  8
APS_GEOMETRY
 10
1.014774
 20
0.672036
 40
0.061926
 50
119.615551
 51
268.458325
  0
LINE
  8
APS_GEOMETRY
 10
1.013108
 11
1.219845
 20
0.610132
 21
0.603118
  0
ARC
  8
APS_GEOMETRY
 10
1.218785
 20
0.571886
 40
0.03125
 50
358.011115
 51
88.056153
  0
LINE
  8
APS_GEOMETRY
 10
1.250016
 11
1.25
 20
0.570801
 21
0.0
  0
LINE
  8
APS_GEOMETRY
 10
1.25
 11
0.0
 20
0.0
 21
0.0
  0
LINE
  8
APS_GEOMETRY
 10
0.0
 11
0.000064
 20
0.0
 21
2.1875
  0
LINE
  8
APS_GEOMETRY
 10
0.000064
 11
0.471051
 20
2.1875
 21
2.1875
  0
LINE
  8
APS_GEOMETRY
 10
0.471051
 11
0.479071
 20
2.1875
 21
1.934641
  0
LINE
  8
CONSTRUCTION
 10
0.152615
 11
0.10065
 20
-1.038482
 21
-1.166909
  0
LINE
  8
CONSTRUCTION
 10
0.10065
 11
0.20458
 20
-1.166909
 21
-1.166909
  0
LINE
  8
CONSTRUCTION
 10
0.20458
 11
0.152615
 20
-1.166909
 21
-1.038482
  0
LINE
  8
CONSTRUCTION
 10
0.152615
 11
0.559547
 20
-1.038482
 21
-1.03848
  0
LINE
  8
CONSTRUCTION
 10
0.559547
 11
0.507582
 20
-1.03848
 21
-1.166908
  0
LINE
  8
CONSTRUCTION
 10
0.507582
 11
0.611512
 20
-1.166908
 21
-1.166908
  0
LINE
  8
CONSTRUCTION
 10
0.611512
 11
0.559547
 20
-1.166908
 21
-1.03848
  0
LINE
  8
CONSTRUCTION
 10
0.559547
 11
0.966478
 20
-1.03848
 21
-1.03848
  0
LINE
  8
CONSTRUCTION
 10
0.966478
 11
0.914513
 20
-1.03848
 21
-1.166908
  0
LINE
  8
CONSTRUCTION
 10
0.914513
 11
1.018442
 20
-1.166908
 21
-1.166908
  0
LINE
  8
CONSTRUCTION
 10
1.018442
 11
0.966478
 20
-1.166908
 21
-1.03848
  0
LINE
  8
CONSTRUCTION
 10
0.966478
 11
1.373408
 20
-1.03848
 21
-1.03848
  0
LINE
  8
CONSTRUCTION
 10
1.373408
 11
1.321443
 20
-1.03848
 21
-1.166908
  0
LINE
  8
CONSTRUCTION
 10
1.321443
 11
1.425373
 20
-1.166908
 21
-1.166908
  0
LINE
  8
CONSTRUCTION
 10
1.425373
 11
1.373408
 20
-1.166908
 21
-1.03848
  0
LINE
  8
CONSTRUCTION
 10
1.373408
 11
1.780281
 20
-1.03848
 21
-1.038482
  0
LINE
  8
CONSTRUCTION
 10
1.780281
 11
1.728316
 20
-1.038482
 21
-1.166909
  0
LINE
  8
CONSTRUCTION
 10
1.728316
 11
1.832246
 20
-1.166909
 21
-1.166909
  0
LINE
  8
CONSTRUCTION
 10
1.832246
 11
1.780281
 20
-1.166909
 21
-1.038482
  0
LINE
  8
CONSTRUCTION
 10
0.0
 11
4.0
 20
-1.561751
 21
-1.561751
  0
TEXT
  8
TEXT
 10
0.10065
 20
-1.405784
 30
0.0
 40
0.224
 50
0.0
  1
DOVETAIL DESIGNS
  0
TEXT
  8
TEXT
 10
2.276036
 20
-1.551751
 30
0.0
 40
0.099
 50
0.0
  1
& MILLWORK INC.
  0
TEXT
  8
TEXT
 10
1.092458
 20
-1.640461
 30
0.0
 40
0.07
 50
0.0
  1
Established 1979
  0
TEXT
  8
TEXT
 10
0.1
 20
-1.8
 30
0.0
 40
0.1
 50
0.0
  1
Phone: (406) 248-5010    Website: www.dovetailmt.com
  0
TEXT
  8
TEXT
 10
0.0
 20
-0.5
 30
0.0
 40
0.1
 50
0.0
  1
1-1/4"x2-3/16"
  0
TEXT
  8
TEXT
 10
0.0
 20
-0.25
 30
0.0
 40
0.15625
 50
0.0
  1
CS136
  0
ENDSEC
  0
EOF
