  0
SECTION
  2
ENTITIES
  0
ARC
  8
APS_GEOMETRY
 10
0.319999
 20
1.842766
 40
0.139569
 50
182.561603
 51
228.371737
  0
ARC
  8
APS_GEOMETRY
 10
0.486333
 20
2.018599
 40
0.381568
 50
227.241763
 51
250.452735
  0
ARC
  8
APS_GEOMETRY
 10
0.319638
 20
1.545081
 40
0.12044
 50
43.250893
 51
71.09194
  0
ARC
  8
APS_GEOMETRY
 10
0.377372
 20
1.598845
 40
0.041552
 50
346.407871
 51
43.802485
  0
ARC
  8
APS_GEOMETRY
 10
0.355095
 20
1.611043
 40
0.066403
 50
299.004938
 51
340.6856
  0
LINE
  8
APS_GEOMETRY
 10
0.387292
 11
0.49998
 20
1.552968
 21
1.552969
  0
LINE
  8
APS_GEOMETRY
 10
0.49998
 11
0.49998
 20
1.552969
 21
0.743392
  0
ARC
  8
APS_GEOMETRY
 10
0.543792
 20
0.745711
 40
0.043873
 50
183.030523
 51
230.852721
  0
ARC
  8
APS_GEOMETRY
 10
0.59905
 20
0.808354
 40
0.127382
 50
229.364978
 51
252.608509
  0
ARC
  8
APS_GEOMETRY
 10
0.643624
 20
0.935033
 40
0.261635
 50
251.585422
 51
265.913798
  0
LINE
  8
APS_GEOMETRY
 10
0.62498
 11
0.62498
 20
0.674063
 21
0.615469
  0
LINE
  8
APS_GEOMETRY
 10
0.62498
 11
0.74998
 20
0.615469
 21
0.615469
  0
LINE
  8
APS_GEOMETRY
 10
0.74998
 11
0.74998
 20
0.615469
 21
0.0
  0
LINE
  8
APS_GEOMETRY
 10
0.74998
 11
0.0
 20
0.0
 21
0.0
  0
LINE
  8
APS_GEOMETRY
 10
0.0
 11
0.0
 20
0.0
 21
1.875
  0
LINE
  8
APS_GEOMETRY
 10
0.0
 11
0.180569
 20
1.875
 21
1.875
  0
LINE
  8
APS_GEOMETRY
 10
0.180569
 11
0.180569
 20
1.875
 21
1.836528
  0
LINE
  8
CONSTRUCTION
 10
0.152615
 11
0.10065
 20
-1.038482
 21
-1.166909
  0
LINE
  8
CONSTRUCTION
 10
0.10065
 11
0.20458
 20
-1.166909
 21
-1.166909
  0
LINE
  8
CONSTRUCTION
 10
0.20458
 11
0.152615
 20
-1.166909
 21
-1.038482
  0
LINE
  8
CONSTRUCTION
 10
0.152615
 11
0.559547
 20
-1.038482
 21
-1.03848
  0
LINE
  8
CONSTRUCTION
 10
0.559547
 11
0.507582
 20
-1.03848
 21
-1.166908
  0
LINE
  8
CONSTRUCTION
 10
0.507582
 11
0.611512
 20
-1.166908
 21
-1.166908
  0
LINE
  8
CONSTRUCTION
 10
0.611512
 11
0.559547
 20
-1.166908
 21
-1.03848
  0
LINE
  8
CONSTRUCTION
 10
0.559547
 11
0.966478
 20
-1.03848
 21
-1.03848
  0
LINE
  8
CONSTRUCTION
 10
0.966478
 11
0.914513
 20
-1.03848
 21
-1.166908
  0
LINE
  8
CONSTRUCTION
 10
0.914513
 11
1.018442
 20
-1.166908
 21
-1.166908
  0
LINE
  8
CONSTRUCTION
 10
1.018442
 11
0.966478
 20
-1.166908
 21
-1.03848
  0
LINE
  8
CONSTRUCTION
 10
0.966478
 11
1.373408
 20
-1.03848
 21
-1.03848
  0
LINE
  8
CONSTRUCTION
 10
1.373408
 11
1.321443
 20
-1.03848
 21
-1.166908
  0
LINE
  8
CONSTRUCTION
 10
1.321443
 11
1.425373
 20
-1.166908
 21
-1.166908
  0
LINE
  8
CONSTRUCTION
 10
1.425373
 11
1.373408
 20
-1.166908
 21
-1.03848
  0
LINE
  8
CONSTRUCTION
 10
1.373408
 11
1.780281
 20
-1.03848
 21
-1.038482
  0
LINE
  8
CONSTRUCTION
 10
1.780281
 11
1.728316
 20
-1.038482
 21
-1.166909
  0
LINE
  8
CONSTRUCTION
 10
1.728316
 11
1.832246
 20
-1.166909
 21
-1.166909
  0
LINE
  8
CONSTRUCTION
 10
1.832246
 11
1.780281
 20
-1.166909
 21
-1.038482
  0
LINE
  8
CONSTRUCTION
 10
0.0
 11
4.0
 20
-1.561751
 21
-1.561751
  0
TEXT
  8
TEXT
 10
0.10065
 20
-1.405784
 30
0.0
 40
0.224
 50
0.0
  1
DOVETAIL DESIGNS
  0
TEXT
  8
TEXT
 10
2.276036
 20
-1.551751
 30
0.0
 40
0.099
 50
0.0
  1
& MILLWORK INC.
  0
TEXT
  8
TEXT
 10
1.092458
 20
-1.640461
 30
0.0
 40
0.07
 50
0.0
  1
Established 1979
  0
TEXT
  8
TEXT
 10
0.1
 20
-1.8
 30
0.0
 40
0.1
 50
0.0
  1
Phone: (406) 248-5010    Website: www.dovetailmt.com
  0
TEXT
  8
TEXT
 10
0.0
 20
-0.5
 30
0.0
 40
0.1
 50
0.0
  1
3/4"x1-7/8"
  0
TEXT
  8
TEXT
 10
0.0
 20
-0.25
 30
0.0
 40
0.15625
 50
0.0
  1
CS134
  0
ENDSEC
  0
EOF
