  0
SECTION
  2
ENTITIES
  0
ARC
  8
APS_GEOMETRY
 10
0.460371
 20
2.635863
 40
0.203125
 50
196.513902
 51
250.1681
  0
ARC
  8
APS_GEOMETRY
 10
0.34375
 20
2.3125
 40
0.140625
 50
282.839561
 51
70.168221
  0
LINE
  8
APS_GEOMETRY
 10
0.375
 11
0.375
 20
2.175391
 21
2.166513
  0
ARC
  8
APS_GEOMETRY
 10
0.34375
 20
2.078125
 40
0.09375
 50
331.927716
 51
70.528678
  0
ARC
  8
APS_GEOMETRY
 10
0.695313
 20
1.890625
 40
0.304688
 50
151.927537
 51
179.999976
  0
ARC
  8
APS_GEOMETRY
 10
0.929692
 20
1.890625
 40
0.539067
 50
180.0
 51
212.0
  0
LINE
  8
APS_GEOMETRY
 10
0.472537
 11
0.636261
 20
1.604963
 21
1.34295
  0
ARC
  8
APS_GEOMETRY
 10
0.4375
 20
1.21875
 40
0.234375
 50
304.131169
 51
32.000072
  0
LINE
  8
APS_GEOMETRY
 10
0.569005
 11
0.691291
 20
1.024745
 21
0.902459
  0
ARC
  8
APS_GEOMETRY
 10
0.625
 20
0.836167
 40
0.09375
 50
359.999708
 51
45.000225
  0
LINE
  8
APS_GEOMETRY
 10
0.71875
 11
0.71875
 20
0.836167
 21
0.09375
  0
ARC
  8
APS_GEOMETRY
 10
0.625
 20
0.09375
 40
0.09375
 50
270.0
 51
0.0
  0
LINE
  8
APS_GEOMETRY
 10
0.625
 11
0.0
 20
0.0
 21
0.0
  0
LINE
  8
APS_GEOMETRY
 10
0.0
 11
0.0
 20
0.0
 21
2.578125
  0
LINE
  8
APS_GEOMETRY
 10
0.0
 11
0.265625
 20
2.578125
 21
2.578125
  0
LINE
  8
CONSTRUCTION
 10
0.152615
 11
0.10065
 20
-1.038482
 21
-1.166909
  0
LINE
  8
CONSTRUCTION
 10
0.10065
 11
0.20458
 20
-1.166909
 21
-1.166909
  0
LINE
  8
CONSTRUCTION
 10
0.20458
 11
0.152615
 20
-1.166909
 21
-1.038482
  0
LINE
  8
CONSTRUCTION
 10
0.152615
 11
0.559547
 20
-1.038482
 21
-1.03848
  0
LINE
  8
CONSTRUCTION
 10
0.559547
 11
0.507582
 20
-1.03848
 21
-1.166908
  0
LINE
  8
CONSTRUCTION
 10
0.507582
 11
0.611512
 20
-1.166908
 21
-1.166908
  0
LINE
  8
CONSTRUCTION
 10
0.611512
 11
0.559547
 20
-1.166908
 21
-1.03848
  0
LINE
  8
CONSTRUCTION
 10
0.559547
 11
0.966478
 20
-1.03848
 21
-1.03848
  0
LINE
  8
CONSTRUCTION
 10
0.966478
 11
0.914513
 20
-1.03848
 21
-1.166908
  0
LINE
  8
CONSTRUCTION
 10
0.914513
 11
1.018442
 20
-1.166908
 21
-1.166908
  0
LINE
  8
CONSTRUCTION
 10
1.018442
 11
0.966478
 20
-1.166908
 21
-1.03848
  0
LINE
  8
CONSTRUCTION
 10
0.966478
 11
1.373408
 20
-1.03848
 21
-1.03848
  0
LINE
  8
CONSTRUCTION
 10
1.373408
 11
1.321443
 20
-1.03848
 21
-1.166908
  0
LINE
  8
CONSTRUCTION
 10
1.321443
 11
1.425373
 20
-1.166908
 21
-1.166908
  0
LINE
  8
CONSTRUCTION
 10
1.425373
 11
1.373408
 20
-1.166908
 21
-1.03848
  0
LINE
  8
CONSTRUCTION
 10
1.373408
 11
1.780281
 20
-1.03848
 21
-1.038482
  0
LINE
  8
CONSTRUCTION
 10
1.780281
 11
1.728316
 20
-1.038482
 21
-1.166909
  0
LINE
  8
CONSTRUCTION
 10
1.728316
 11
1.832246
 20
-1.166909
 21
-1.166909
  0
LINE
  8
CONSTRUCTION
 10
1.832246
 11
1.780281
 20
-1.166909
 21
-1.038482
  0
LINE
  8
CONSTRUCTION
 10
0.0
 11
4.0
 20
-1.561751
 21
-1.561751
  0
TEXT
  8
TEXT
 10
0.10065
 20
-1.405784
 30
0.0
 40
0.224
 50
0.0
  1
DOVETAIL DESIGNS
  0
TEXT
  8
TEXT
 10
2.276036
 20
-1.551751
 30
0.0
 40
0.099
 50
0.0
  1
& MILLWORK INC.
  0
TEXT
  8
TEXT
 10
1.092458
 20
-1.640461
 30
0.0
 40
0.07
 50
0.0
  1
Established 1979
  0
TEXT
  8
TEXT
 10
0.1
 20
-1.8
 30
0.0
 40
0.1
 50
0.0
  1
Phone: (406) 248-5010    Website: www.dovetailmt.com
  0
TEXT
  8
TEXT
 10
0.0
 20
-0.5
 30
0.0
 40
0.1
 50
0.0
  1
23/32"x2-37/64"
  0
TEXT
  8
TEXT
 10
0.0
 20
-0.25
 30
0.0
 40
0.15625
 50
0.0
  1
CS126
  0
ENDSEC
  0
EOF
