  0
SECTION
  2
ENTITIES
  0
ARC
  8
APS_GEOMETRY
 10
0.5525
 20
0.1975
 40
0.1875
 50
198.662925
 51
18.662925
  0
ARC
  8
APS_GEOMETRY
 10
0.5525
 20
0.1975
 40
0.1875
 50
18.662925
 51
71.337075
  0
LINE
  8
APS_GEOMETRY
 10
0.6125
 11
0.6125
 20
0.375141
 21
0.437641
  0
LINE
  8
APS_GEOMETRY
 10
0.6125
 11
0.75
 20
0.437641
 21
0.440041
  0
LINE
  8
APS_GEOMETRY
 10
0.75
 11
0.75
 20
0.440041
 21
5.059959
  0
LINE
  8
APS_GEOMETRY
 10
0.75
 11
0.6125
 20
5.059959
 21
5.062359
  0
LINE
  8
APS_GEOMETRY
 10
0.6125
 11
0.6125
 20
5.062359
 21
5.124859
  0
ARC
  8
APS_GEOMETRY
 10
0.5525
 20
5.3025
 40
0.1875
 50
288.662915
 51
108.662915
  0
ARC
  8
APS_GEOMETRY
 10
0.5525
 20
5.3025
 40
0.1875
 50
108.662915
 51
161.337065
  0
LINE
  8
APS_GEOMETRY
 10
0.374859
 11
0.312359
 20
5.3625
 21
5.3625
  0
LINE
  8
APS_GEOMETRY
 10
0.312359
 11
0.309959
 20
5.3625
 21
5.5
  0
LINE
  8
APS_GEOMETRY
 10
0.309959
 11
0.0
 20
5.5
 21
5.5
  0
LINE
  8
APS_GEOMETRY
 10
0.0
 11
0.0
 20
5.5
 21
4.631579
  0
LINE
  8
APS_GEOMETRY
 10
0.0
 11
0.0625
 20
4.631579
 21
4.631579
  0
LINE
  8
APS_GEOMETRY
 10
0.0625
 11
0.0625
 20
4.631579
 21
0.868421
  0
LINE
  8
APS_GEOMETRY
 10
0.0625
 11
0.0
 20
0.868421
 21
0.868421
  0
LINE
  8
APS_GEOMETRY
 10
0.0
 11
0.0
 20
0.868421
 21
0.0
  0
LINE
  8
APS_GEOMETRY
 10
0.0
 11
0.309959
 20
0.0
 21
0.0
  0
LINE
  8
APS_GEOMETRY
 10
0.309959
 11
0.312359
 20
0.0
 21
0.1375
  0
LINE
  8
APS_GEOMETRY
 10
0.312359
 11
0.374859
 20
0.1375
 21
0.1375
  0
LINE
  8
CONSTRUCTION
 10
0.152615
 11
0.10065
 20
-1.038482
 21
-1.166909
  0
LINE
  8
CONSTRUCTION
 10
0.10065
 11
0.20458
 20
-1.166909
 21
-1.166909
  0
LINE
  8
CONSTRUCTION
 10
0.20458
 11
0.152615
 20
-1.166909
 21
-1.038482
  0
LINE
  8
CONSTRUCTION
 10
0.152615
 11
0.559547
 20
-1.038482
 21
-1.03848
  0
LINE
  8
CONSTRUCTION
 10
0.559547
 11
0.507582
 20
-1.03848
 21
-1.166908
  0
LINE
  8
CONSTRUCTION
 10
0.507582
 11
0.611512
 20
-1.166908
 21
-1.166908
  0
LINE
  8
CONSTRUCTION
 10
0.611512
 11
0.559547
 20
-1.166908
 21
-1.03848
  0
LINE
  8
CONSTRUCTION
 10
0.559547
 11
0.966478
 20
-1.03848
 21
-1.03848
  0
LINE
  8
CONSTRUCTION
 10
0.966478
 11
0.914513
 20
-1.03848
 21
-1.166908
  0
LINE
  8
CONSTRUCTION
 10
0.914513
 11
1.018442
 20
-1.166908
 21
-1.166908
  0
LINE
  8
CONSTRUCTION
 10
1.018442
 11
0.966478
 20
-1.166908
 21
-1.03848
  0
LINE
  8
CONSTRUCTION
 10
0.966478
 11
1.373408
 20
-1.03848
 21
-1.03848
  0
LINE
  8
CONSTRUCTION
 10
1.373408
 11
1.321443
 20
-1.03848
 21
-1.166908
  0
LINE
  8
CONSTRUCTION
 10
1.321443
 11
1.425373
 20
-1.166908
 21
-1.166908
  0
LINE
  8
CONSTRUCTION
 10
1.425373
 11
1.373408
 20
-1.166908
 21
-1.03848
  0
LINE
  8
CONSTRUCTION
 10
1.373408
 11
1.780281
 20
-1.03848
 21
-1.038482
  0
LINE
  8
CONSTRUCTION
 10
1.780281
 11
1.728316
 20
-1.038482
 21
-1.166909
  0
LINE
  8
CONSTRUCTION
 10
1.728316
 11
1.832246
 20
-1.166909
 21
-1.166909
  0
LINE
  8
CONSTRUCTION
 10
1.832246
 11
1.780281
 20
-1.166909
 21
-1.038482
  0
LINE
  8
CONSTRUCTION
 10
0.0
 11
4.0
 20
-1.561751
 21
-1.561751
  0
TEXT
  8
TEXT
 10
0.10065
 20
-1.405784
 30
0.0
 40
0.224
 50
0.0
  1
DOVETAIL DESIGNS
  0
TEXT
  8
TEXT
 10
2.276036
 20
-1.551751
 30
0.0
 40
0.099
 50
0.0
  1
& MILLWORK INC.
  0
TEXT
  8
TEXT
 10
1.092458
 20
-1.640461
 30
0.0
 40
0.07
 50
0.0
  1
Established 1979
  0
TEXT
  8
TEXT
 10
0.1
 20
-1.8
 30
0.0
 40
0.1
 50
0.0
  1
Phone: (406) 248-5010    Website: www.dovetailmt.com
  0
TEXT
  8
TEXT
 10
0.0
 20
-0.25
 30
0.0
 40
0.15625
 50
0.0
  1
CS122
  0
TEXT
  8
TEXT
 10
0.0
 20
-0.5
 30
0.0
 40
0.1
 50
0.0
  1
3/4"x5-1/2"
  0
ENDSEC
  0
EOF
